PrimaNota.ru - самый крупный в мире бесплатный архив песенных текстов, аккордов, табулатур и нот


Be Bop Deluxe - Love With The Madman - таба, видео

Регистрация Запомнить меня
Войти через:  Facebook Google Twitter Vk Yandex Mail.ru

Be Bop Deluxe - Love With The Madman - таба, видео

Печатать
Просмотров: 107
Авторы музыки: Bill Nelson
Авторы текста: Bill Nelson
-------------------------------------------------------------------------------
        Love With The Madman - Be Bop Deluxe
-------------------------------------------------------------------------------

Tabbed by: axe victim

Email: Leave a message on my  ‘Ultimate Guitar'  profile or comment 
here and I'll get back to you.

Second track from the  'Futurama'  CD. Another tune written on a 
piano it would seem, like a lot of songs from this album.  I have 
arranged some of the parts for guitar, you can do the rest.


Tuning: EADGBe

|(133211) chord shape
| /  slide up
| \  slide down
| b  bend
| r  release bend
| h  hammer-on
| p  pull-off
| ~  vibrato
| +  harmonic
| x  Mute note
| Eb/G chord/bass note
|(3) optional note


Intro: ( piano, arranged for guitar... )

___G_______________________________G/F____________________________

e|-------------------------------------------------3--------------|
B|-0---------------1--p0-------------------3----------------------|
G|-0---------------0-------2-------0------------------------------|
D|-0-------------------------------0------------------------------|
A|-x-------------------------------x------------------------------|
E|-3-------------------------------1------------------------------|

 | 1   -   &   -   2   -   &   -   3   -   &   -   4   -   &   -  |


___G_______________________________G/F____________________________

e|-------------------------------------------------3--------------|
B|-0---------------1--p0-------------------3----------------------|
G|-0---------------0-------2-------0------------------------------|
D|-0-------------------------------0------------------------------|
A|-x-------------------------------x------------------------------|
E|-3-------------------------------1------------------------------|


___Gsus4___________________________C_______________Db_____________

e|----------------------------------------------------------------|
B|-1-------0------------------------------------------------------|
G|-0---------------2-------0-------5---------------6--------------|
D|-0---------------------------2---5---------------6--------------|
A|-x-------------------------------3---------------4--------------|
E|-3--------------------------------------------------------------|


___Dm_____________________________________________________________

e|----------------------------------------------------------------|
B|-6--------------------------------------------------------------|
G|-7-----------7---7----------------------------------------------|
D|-7-----------7---7----------------------------------------------|
A|-5-----------5---5----------------------------------------------|
E|----------------------------------------------------------------|



Main riff:

___F_(133211)______________________Bb_(x1333x)____________________
( lead guitar )
e|----------------------------------------------------------------|
B|----------------------------------------------------------------|
G|---------------------------------5b7~~r5b7~~r5b7~~r5b7~~~~~~~~--|
D|----------------------------------------------------------------|
A|---------------------3--h5p3p0----------------------------------|
E|/1-----------3--/5----------------------------------------------|

 | 1   -   &   -   2   -   &   -   3   -   &   -   4   -   &   -  |


___F_(133211)______________________Bb_(x1333x)____________________
( lead guitar )
e|----------------------------------------------------------------|
B|----------------------------------------------------------------|
G|---------------------------------5b7~~r5b7~~r5b7~~r5b7~~~~~~~~--|
D|----------------------------------------------------------------|
A|---------------------3--h5p3p0----------------------------------|
E|-1-----------3--h5----------------------------------------------|


___F_(133211)______________________Db_(x4312x)_____Eb_(x6534x)____
( lead guitar )
e|----------------------------------------------------------------|
B|----------------------------------------------------------------|
G|----------------------------------------------------------------|
D|-------------------------3-------5b6~~~~~~--r5p3h5~~~~~3h5p3p0--|
A|-----------------3--h5-------5----------------------------------|
E|-1-------3--h5--------------------------------------------------|

 | 1   -   &   -   2   -   &   -   3   -   &   -   4   -   &   -  |


___F_(1x3211)_____________________________________________________
( lead guitar )
e|----------------------------------------------------------------|
B|----------------------------------------------------------------|
G|----------------------------------------------------------------|
D|-3~~~~~~~~~~~~~~------------------------------------------------|
A|-----------------3~~~~~~~~~~~~~~--------------------------------|
E|---------------------------------1~~~~~~~~~~~~~~~~~~~~~~~~~~~~~-|



Verse: ( there is a lot of ad lib piano parts - I have tabbed some of it
but you could improvise a little, especially with those long C chords )

___F______________________________________________________________
" Piano    keys    don't    please    me             they're so...  "
e|-1--------------------------------------------------------------|
B|-1--------------------------------------------------------------|
G|-2--------------------------------------------------------------|
D|-3--------------------------------------------------------------|
A|-3--------------------------------------------------------------|
E|-1--------------------------------------------------------------|


___Bb______________________________Db______________Eb_____________
 " dark    and     it's    so      easy            to... "
e|----------------------------------------------------------------|
B|-3-------------------------------2---------------4--------------|
G|-3-------------------------------1---------------3--------------|
D|-3-------------------------------3---------------5--------------|
A|-1-------------------------------4---------------6--------------|
E|----------------------------------------------------------------|
 | 1   -   &   -   2   -   &   -   3   -   &   -   4   -   &   -  |


___F_______________________________Bb_____________________________
" forgive them "
e|-1----------------------------------------------1---------------|
B|-1------------------------------------------1-------1-----------|
G|-2---------------3---2---0-------3------------------------------|
D|-3-------------------------------3------3---------------3-------|
A|-3-------------------------------1------------------------------|
E|-1--------------------------------------------------------------|


___F_______________________________Db______________Eb_____________

e|-1--------------------------------------------------------------|
B|-1-------------------------------2---------------4--------------|
G|-2---------------3---2---0-------1---------------3--------------|
D|-3-------------------------------3---------------5--------------|
A|-3-------------------------------4---------------6--------------|
E|-1--------------------------------------------------------------|


___F______________________________________________________________
" And     violins      still     scream             from    every... "
e|-1--------------------------------------------------------------|
B|-1--------------------------------------------------------------|
G|-2--------------------------------------------------------------|
D|-3--------------------------------------------------------------|
A|-3--------------------------------------------------------------|
E|-1--------------------------------------------------------------|


___Bb______________________________Db______________Eb_____________
 " room      you've      ever      passed   your   presence... "
e|----------------------------------------------------------------|
B|-3-------------------------------2---------------4--------------|
G|-3-------------------------------1---------------3--------------|
D|-3-------------------------------3---------------5--------------|
A|-1-------------------------------4---------------6--------------|
E|----------------------------------------------------------------|
 | 1   -   &   -   2   -   &   -   3   -   &   -   4   -   &   -  |


___F_______________________________Bb_____________________________
" through "
e|-1----------------------------------------------1---------------|
B|-1------------------------------------------1-------1-----------|
G|-2---------------3---2---0-------3------------------------------|
D|-3-------------------------------3------3---------------3-------|
A|-3-------------------------------1------------------------------|
E|-1--------------------------------------------------------------|


___F_______________F/Eb____________F/D_____________F/Db___________
                                                     " but if you... "
e|---------1---------------1---------------1---------------1------|
B|-----1-------1-------1-------1-------1-------1-------1-------1--|
G|----------------------------------------------------------------|
D|-3---------------1---------------0------------------------------|
A|-------------------------------------------------4--------------|
E|----------------------------------------------------------------|

 | 1   -   &   -   2   -   &   -   3   -   &   -   4   -   &   -  |


___C______________________________________________________________
 " hang   'round   here       much longer             you'll go... "
e|----------------------------------------------------------------|
B|-1--------------------------------------------------------------|
G|-0--------------------------------------------------------------|
D|-x--------------------------------------------------------------|
A|-3--------------------------------------------------------------|
E|----------------------------------------------------------------|


___C______________________________________________________________
 " crazy         with        the     wonder       of         it... "
e|----------------------------------------------------------------|
B|-1--------------------------------------------------------------|
G|-0--------------------------------------------------------------|
D|-x--------------------------------------------------------------|
A|-3--------------------------------------------------------------|
E|----------------------------------------------------------------|


___F_______________________________Bb_____________________________
" all... "
e|-1----------------------------------------------1---------------|
B|-1------------------------------------------1-------1-----------|
G|-2---------------3---2---0-------3------------------------------|
D|-3-------------------------------3------3---------------3-------|
A|-3-------------------------------1------------------------------|
E|-1--------------------------------------------------------------|


___F_______________F/Eb____________F/D_____________F/Db___________
                                                     " For... "
e|---------1---------------1---------------1---------------1------|
B|-----1-------1-------1-------1-------1-------1-------1-------1--|
G|----------------------------------------------------------------|
D|-3---------------1---------------0------------------------------|
A|-------------------------------------------------4--------------|
E|----------------------------------------------------------------|


___C______________________________________________________________
 " love            with        the madman                   is a... "
e|----------------------------------------------------------------|
B|-1--------------------------------------------------------------|
G|-0--------------------------------------------------------------|
D|-x--------------------------------------------------------------|
A|-3--------------------------------------------------------------|
E|----------------------------------------------------------------|


___C______________________________________________________________
 " sad affair                           a  long,  long  way  to... "
e|----------------------------------------------------------------|
B|-1--------------------------------------------------------------|
G|-0--------------------------------------------------------------|
D|-x--------------------------------------------------------------|
A|-3--------------------------------------------------------------|
E|----------------------------------------------------------------|


___F_(133211)______________________Bb_(x1333x)____________________
" fall... "
e|----------------------------------------------------------------|
B|----------------------------------------------------------------|
G|---------------------------------5b7~~r5b7~~r5b7~~r5b7~~~~~~~~--|
D|----------------------------------------------------------------|
A|---------------------3--h5p3p0----------------------------------|
E|/1-----------3--/5----------------------------------------------|


___F_(133211)______________________Bb_(x1333x)____________________
( lead guitar )
e|----------------------------------------------------------------|
B|----------------------------------------------------------------|
G|---------------------------------5b7~~r5b7~~r5b7~~r5b7~~~~~~~~--|
D|----------------------------------------------------------------|
A|---------------------3--h5p3p0----------------------------------|
E|-1-----------3--h5----------------------------------------------|


___F_(133211)______________________Db_(x4312x)_____Eb_(x6534x)____
( lead guitar )
e|----------------------------------------------------------------|
B|----------------------------------------------------------------|
G|----------------------------------------------------------------|
D|-------------------------3-------5b6~~~~~~--r5p3h5~~~~~3h5p3p0--|
A|-----------------3--h5-------5----------------------------------|
E|-1-------3--h5--------------------------------------------------|


___F_(1x3211)_____________________________________________________
( lead guitar )
e|----------------------------------------------------------------|
B|----------------------------------------------------------------|
G|----------------------------------------------------------------|
D|-3~~~~~~~~~~~~~~------------------------------------------------|
A|-----------------3~~~~~~~~~~~~~~--------------------------------|
E|---------------------------------1~~~~~~~~~~~~~~~~~~~~~~~~~~~~~-|



Repeat from verse, until...

Ending...

___F_______________________________Bb_____________________________

e|-1----------------------------------------------1---------------|
B|-1------------------------------------------1-------1-----------|
G|-2---------------3---2---0-------3------------------------------|
D|-3-------------------------------3------3---------------3-------|
A|-3-------------------------------1------------------------------|
E|-1--------------------------------------------------------------|


___F_______________________________Db______________Eb_____________

e|-1--------------------------------------------------------------|
B|-1-------------------------------2---------------4--------------|
G|-2---------------3---2---0-------1---------------3--------------|
D|-3-------------------------------3---------------5--------------|
A|-3-------------------------------4---------------6--------------|
E|-1--------------------------------------------------------------|


___G______________________________________________________________
( piano, arr. for guitar )
e|-3--------------------------------------------------------------|
B|-0--------------------------------------------------------------|
G|-0--------------------------------------------------------------|
D|-0--------------------------------------------------------------|
A|-x-------------------------------0---------------3--------------|
E|-3--------------------------------------------------------------|


___G______________________________________________________________
( piano, arr. for guitar )
e|-3--------------------------------------------------------------|
B|-0--------------------------------------------------------------|
G|-0--------------------------------------------------------------|
D|-0--------------------------------------------------------------|
A|-2--------------------------------------------------------------|
E|-3--------------------------------------------------------------|


Ending, lead guitar... 

___F_(133211)______________________Bb_(x1333x)____________________

e|----------------------------------------------------------------|
B|----------------------------------------------------------------|
G|---------------------------------5b7~~r5b7~~r5b7~~r5b7~~~~~~~~--|
D|----------------------------------------------------------------|
A|---------------------3--h5p3p0----------------------------------|
E|/1-----------3--/5----------------------------------------------|



___F_(133211)______________________Bb_(x1333x)____________________
( lead guitar )
e|----------------------------------------------------------------|
B|----------------------------------------------------------------|
G|---------------------------------5b7~~r5b7~~r5b7~~r5b7~~~~~~~~--|
D|----------------------------------------------------------------|
A|---------------------3--h5p3p0----------------------------------|
E|-1-----------3--h5----------------------------------------------|



___F_(133211)______________________Db_(x4312x)_____Eb_(x6534x)____
( lead guitar )
e|----------------------------------------------------------------|
B|----------------------------------------------------------------|
G|----------------------------------------------------------------|
D|-------------------------3-------5b6~~~~~~--r5p3h5~~~~~3h5p3p0--|
A|-----------------3--h5-------5----------------------------------|
E|-1-------3--h5--------------------------------------------------|



___G_(3x0003)_____________________________________________________
( lead guitar )
e|----------------------------------------------------------------|
B|----------------------------------------------------------------|
G|---------------------------------------------------------12-h14-|
D|-3--h5--/7---5--h7--/9---7--h9--/12--9--h12-/14--12-h14---------|
A|----------------------------------------------------------------|
E|----------------------------------------------------------------|



___G_(320003)_____________________________________________________
( lead guitar )
e|----------------------------------------------------------------|
B|----------------------------------------------------------------|
G|-14-b16-r14-p12-h14-b16~~~~~~~~~~~~~~~~~~~~~~~~~~~~~~~~~~-------|
D|----------------------------------------------------------------|
A|----------------------------------------------------------------|
E|----------------------------------------------------------------|


Lyrics:

Piano keys don't please me
They're so dark and it's so easy to forgive them
And violins still scream 
From every room you've ever passed your presence through

But if you hang 'round here much longer
You'll go crazy with the wonder of it all
For love with the madman is a sad affair
A long, long way to fall

My orchestras have waited 
They've been baited by the baton you conducted
And every beat's a heartbeat 
In this symphony of trouble and confusion

But if you hang 'round here much longer
You'll go crazy with the wonder of it all
For love with the madman is a sad affair
Because...

Music and lyrics by Bill Nelson

Добавлено: 17.07.2012
Другие материалы по этой песне:
  • Аккорды и текст

Страница создана 17.07.2012
http://primanota.ru/be-bop-deluxe/love-with-the-madman-chords.htm
Привет, Гость.
Предлагаем пройти революционный курс по гитаре.
Подарок от PrimaNota.Ru, забирай!