PrimaNota.ru - самый крупный в мире бесплатный архив песенных текстов, аккордов, табулатур и нот


Be Bop Deluxe - Adventures in a Yorkshire Landscape - текст песни, таба, видео

Регистрация Запомнить меня
Войти через:  Facebook Google Twitter Vk Yandex Mail.ru

Be Bop Deluxe - Adventures in a Yorkshire Landscape - текст песни, таба, видео

Печатать
Просмотров: 137
Авторы музыки: Bill Nelson
Авторы текста: Bill Nelson
-------------------------------------------------------------------------------
Adventures In A Yorkshire Landscape - Be Bop Deluxe
-------------------------------------------------------------------------------

Tabbed by: axe victim

Leave a message on my  ‘Ultimate Guitar’  profile or comment
here and I’ll get back to you.

Tuning: EADGBe


| /  slide up
| \  slide down
| s  slur - very rapid slide, sounds like one note
| h  hammer-on
| p  pull-off
| ~  vibrato or sustain
| +  harmonic
| x  Mute note
| PM palm mute
|(13) ghost note
| <  pick scrape
| b  bend
| r  relax bend
| pb pre-bend
| ^  quarter tone bend
|(x7678x) chord shape
|(02:10) time marker
| t = thumb ( fretting hand )
| i = index finger ( fretting hand )
| m = middle finger ( fretting hand )
| r = ring finger ( fretting hand )
| p = pinky  ( fretting hand )




This is the live version from "Live! In The Air Age" I've tabbed the acoustic
intro guitar parts from the studio version too.  On the live recording its 
just piano of course.  

Guitar solo was played on a Gibson ES345 Stereo into two Carlsbro 100 watt amps!


Intro: Waltz feel...

( Studio version, acoustic guitar as below. Live version is piano only! )

___Dm_________________Dm9________________Dm_________________Dm9_____________

e|-5-----5---5-5---5--5-----5---5-5---5--5-----5---5-5---5--5-----5---5-5--5-
B|-6-----6---6-6---6--5-----5---5-5---5--6-----6---6-6---6--5-----5---5-5--5-
G|-7-----7---7-7---7--7-----7---7-7---7--7-----7---7-7---7--7-----7---7-7--7-
D|-7-----7---7-7---7--7-----7---7-7---7--7-----7---7-7---7--7-----7---7-7--7-
A|-5-----5---5-5---5--5-----5---5-5---5--5-----5---5-5---5--5-----5---5-5--5-
E|--------------------------------------------------------------------------|

 | 1 - - 2 - - 3 - -| 1 - - 2 - - 3 - -| 1 - - 2 - - 3 - -| 1 - - 2 - - 3 --|



___Dm_________________Dm9________________Dm_________________Dm9_____________
 " Bridges      and   rivers               and buildings pulled down..."
e|-5-----5---5-5---5--5-----5---5-5---5--5-----5---5-5---5--5-----5---5-5---|
B|-6-----6---6-6---6--5-----5---5-5---5--6-----6---6-6---6--5-----5---5-5---|
G|-7-----7---7-7---7--7-----7---7-7---7--7-----7---7-7---7--7-----7---7-7---|
D|-7-----7---7-7---7--7-----7---7-7---7--7-----7---7-7---7--7-----7---7-7---|
A|-5-----5---5-5---5--5-----5---5-5---5--5-----5---5-5---5--5-----5---5-5---|
E|--------------------------------------------------------------------------|

 | 1 - - 2 - - 3 - -| 1 - - 2 - - 3 - -| 1 - - 2 - - 3 - -| 1 - - 2 - - 3 --|


___Bb_______________________________________________________________________
 " Time      spent in places          my footsteps had found... "
e|-6-----6---6-6---6--6-----6---6-6---6--6-----6---6-6---6--6-----6---6-6---|
B|-6-----6---6-6---6--6-----6---6-6---6--6-----6---6-6---6--6-----6---6-6---|
G|-7-----7---7-7---7--7-----7---7-7---7--7-----7---7-7---7--7-----7---7-7---|
D|-8-----8---8-8---8--8-----8---8-8---8--8-----8---8-8---8--8-----8---8-8---|
A|-8-----8---8-8---8--8-----8---8-8---8--8-----8---8-8---8--8-----8---8-8---|
E|-6-----6---6-6---6--6-----6---6-6---6--6-----6---6-6---6--6-----6---6-6---|


___C________________________________________________________________________
 " Mirrors     in     Ballrooms   lie    smashed    on the ground... "
e|-8-----8---8-8---8--8-----8---8-8---8--8-----8---8-8---8--8-----8---8-8---|
B|-8-----8---8-8---8--8-----8---8-8---8--8-----8---8-8---8--8-----8---8-8---|
G|-9-----9---9-9---9--9-----9---9-9---9--9-----9---9-9---9--9-----9---9-9---|
D|-10----10--1010--10-10----10--1010--10-10----10--1010--10-10----10--1010--|
A|-10----10--1010--10-10----10--1010--10-10----10--1010--10-10----10--1010--|
E|-8-----8---8-8---8--8-----8---8-8---8--8-----8---8-8---8--8-----8---8-8---|


___Dm___________________________________________________________________________
 " Walking    with    November mists... "
e|-5-----5---5-5---5--5-----5---5-5---5--5----------------------------------|----
B|-6-----6---6-6---6--6-----6---6-6---6--6----------------------------------|----
G|-7-----7---7-7---7--7-----7---7-7---7--7-----7-----5----------------------|----
D|-7-----7---7-7---7--7-----7---7-7---7--7------------------7-----5---------|----
A|-5-----5---5-5---5--5-----5---5-5---5--5------------------------------8---|-5~~
E|--------------------------------------------------------------------------|----

 | 1 - - 2 - - 3 - -| 1 - - 2 - - 3 - -| 1 - - 2 - - 3 - -| 1 - - 2 - - 3 - | 1 -



___Dm_______________________________________________________________________
 " Pathways       and windows        and movies in May... "
e|--------------------------------------------------------------------------|
B|--------------------------------------------------------------------------|
G|----------------------------------------------------------------5h7p5\3p2-|
D|--------------------------------------------------------------------------|
A|--------------------------------------------------------------------------|
E|--------------------------------------------------------------------------|


___Bb_______________________________________________________________________
 " Quiet old ladies who soon pass away... "
e|--------------------------------------------------------------------------|
B|--------------------------------------------------------------------------|
G|-3~~~~~~~~~-------------------------------------------------------------2h3
D|--------------------------------------------------------------------------|
A|--------------------------------------------------------------------------|
E|--------------------------------------------------------------------------|


___C________________________________________________________________________
 " Paintings and songs that I'd done in a day... "
e|--------------------------------------------------------------------------|
B|--------------------------------------------------------------------------|
G|-5~~~~~~~~~~~~~~~~~~~~~~~~~~~~~~~~~~~~~~~~~~~~~~~~~~~~~~~~~~~~~~3------5--|
D|--------------------------------------------------------------------------|
A|--------------------------------------------------------------------------|
E|--------------------------------------------------------------------------|


___Dm____________________________________C__________________________________
             " Going 'round in    my     head... "
e|--------------------------------------------------------------------------|
B|--------------------------------------------------------------------------|
G|/7~~~~~~~~~~~~~~~~~~~~~~~~~~~~~~~~~~~~~5~~~~~~~~~~~~~~~~~~~~~~~~~~~~~~/\--|
D|--------------------------------------------------------------------------|
A|--------------------------------------------------------------------------|
E|--------------------------------------------------------------------------|



___G_(355433)_________F_(133211)_________C_(x32010)_________________________
       " Fires on     spires      and    chimneys of black... "
e|--------------------------------------------------------------------------|
B|--------------------------------------------------------------------------|
G|--------------------------------------------------------------------------|
D|----------------------------------------------------------------5-----7p5-|
A|-5------------------3------------------3-----------------5/7--------------7\
E|-3------------------1-----------------------------------------------------|


___G_(355433)_________F_(133211)_________C_(x32010)_________________________
       " Fields  on   horizons    with   pylons that crack... "
e|--------------------------------------------------------------------------|
B|--------------------------------------------------------------------------|
G|----------------------------------------------------------------------5---|
D|----------------------------------------------------------------5---------|
A|-5------------------3------------------3-----------------5/7--------------|
E|-3------------------1-----------------------------------------------------|


___Am_(x02210)___________________________Em_(022000)________________________
 " With singing   sad wires          for council house mystics... "
e|--------------------------------------------------------------------------|
B|--------------------------------------------------------------------------|
G|-7/9~~~~~~~~~~~~~~~~~~~~~~~~~~~~~~~~~~~~~~~~~~~~~~~~~~~~~~~~~~~~~~~~~~~~~~~
D|--------------------------------------------------------------------------|
A|--------------------------------------------------------------------------|
E|--------------------------------------------------------------------------|


___D_(xx0232)___________________________F#m_(244222)________________________
 " To apply their statistics        and read the tea leaves... "
e|--------------------------------------------------------------------------|
B|--------------------------------------------------------------------------|
G|~~~~~~~~~~~~~\------------------------------------------------------------|
D|--------------------------------------------------------------------------|
A|--------------------------------------------------------------------------|
E|--------------------------------------------------------------------------|


___Bm_(x24432)____________________________________________
 " Time  knows no     li -  mits  for   days   such  as... "
e|--------------------------------------------------------|
B|--------------------------------------------------------|
G|-7-----6-----4------7-----6-----4------7-----6-----4~~/9-
D|--------------------------------------------------------|
A|--------------------------------------------------------|
E|--------------------------------------------------------|

 | 1 - - 2 - - 3 - -| 1 - - 2 - - 3 - -| 1 - - 2 - - 3 - -|


___Cmaj7_(x32000)_______________________Fmaj7_(33210)________________________
 " these... "
e|---------------------------------------------------------------------------|
B|-12------------------------------------------------------------------------|
G|----12-9-------------------------------------------------------------------|
D|----------9----------------------------------------------------------------|
A|------------10~~~~~~~~~~~~~~~~~~~~~~~~~~~~~~~~~~~~~~~~~~~~~~~~~~~~~~~~~~~~~~~\
E|---------------------------------------------------------------------------|


Note sustains for a few bars of Cmaj7/Fmaj7, then solo begins...


Solo: ( bars stretched to show detail... )


___Cmaj7_(x32000)__________________________________________________________
02:00
e|-------------------------------------------------------------------------|
B|-------------8~~~~~~~~~~~~~~~~~~~~~~-------------------------------------|
G|--------------------------------------10------9---7h9p7------------------|
D|----------------------------------------------------------10--9---9h10p9-|
A|-------------------------------------------------------------------------|
E|-------------------------------------------------------------------------|

 | 1 - x - x - 2 - x - x - 3 - x - x -| 1 - x - x - 2 - x - x - 3 - x - x -|


__Fmaj7_(x33210)___________________________________________________________

e|-------------------------------------------------------------------------|
B|-------------------------------------------------------------------------|
G|-------------------------------------------------------------------------|
D|-------------------------------------------------------------------------|
A|-10~~~~~~~~~~~~~~~~~~~~~~~~~~~~~~~~~~~~~~~~~~-8---7-------8---7h8p7------|
E|----------------------------------------------------------------------10-|


___Cmaj7_(x32000)__________________________________________________________
                                                                  (  PM & rake )
e|------------------------------------------------------------------------8-
B|----------------------------------------------------------------------8--|
G|--------------------------------------------------------------------9----|
D|-------------10~~~~~~~~~~~~~~~~~~~~~~~~~~~~~~~~~~~~~~~~~~~~~-------------|
A|-------------------------------------------------------------------------|
E|-8-----------------------------------------------------------------------|
   i           r~~~~~~~~~~~~~~~~~~~~~~~~~~~~~~~~~~~~~~~~~~~~~~        m i i 


__Fmaj7_(x33210)___________________________________________________________
                                                          ( ghost note )
e|-10~~~~~~~~~~~~~~~~~~~~~~~~~~~~~~~~~~~~~~~~~~~~~~~~~~~~~~~~~~(13)--------|
B|-------------------------------------------------------------------------|
G|-------------------------------------------------------------------------|
D|-------------------------------------------------------------------------|
A|-------------------------------------------------------------------------|
E|-------------------------------------------------------------------------|
   m~~~~~~~~~~~~~~~~~~~~~~~~~~~~~~~~~~~~~~~~~~~~~~~~~~~~~~~~~~~~p


___Cmaj7_(x32000)__________________________________________________________

e|---------------------------------12---13----15----13-12h13p12------------|
B|--------------------------------------------------------------15-13p12---|
G|-----------------------------------------------------------------------14-
D|-------------------------------------------------------------------------|
A|-------------------------------------------------------------------------|
E|-------------------------------------------------------------------------|


__Fmaj7_(x33210)___________________________________________________________

e|-------------------------------------------------------------------------|
B|-------------------------13--12h13p12------------------------------------|
G|-12~~~~~~~~~~~~~~~~~~~~~--------------14------12-\10-----10\9-10--h12----|
D|------------------------------------------14---------12------------------|
A|-------------------------------------------------------------------------|
E|-------------------------------------------------------------------------|


___Cmaj7_(x32000)__________________________________________________________

e|-------------------------7-------3---------------------------------------|
B|--------------------------------------5----------------------------------|
G|-9~~~~~~~~~~~~~~~~~~\0--------------------4------------------------------|
D|----------------------------------------------5--------------------------|
A|--------------------------------------------------7~~~~~~~~~~~~~~~----5--|
E|-------------------------------------------------------------------------|
   i~~~~~~~~~~~~~~~~~~\    p       i    m   i   m   p~~~~~~~~~~~~~~~    m


__Fmaj7_(x33210)___________________________________________________________

e|-------------------------------------------------------------------------|
B|-------------------------------------------------------------------------|
G|-------------------------------------------------------------------------|
D|-------------------------------------------------------------------------|
A|-3~~~~~~~~~~~~~~~~~~~~~~~~~~~~~~~~~~~~~~~~~~~~~~~~~~~~~~~~~~/14----------|
E|-------------------------------------------------------------------------|
   i~~~~~~~~~~~~~~~~~~~~~~~~~~~~~~~~~~~~~~~~~~~~~~~~~~~~~~~~~~/i


___Cmaj7_(x32000)__________________________________________________________
02:23                        ( alternate picking... )
e|-------------------------------------------------------------------------|
B|--------------------------------------------------------------13-15--13-15-
G|---------------------------------------------12-14----12-14-16-----16----|
D|----------------------------12-14----12-14-15------15--------------------|
A|-----------12-14----12-14-15------15-------------------------------------|
E|------(15)-------15------------------------------------------------------|


__Fmaj7_(x33210)___________________________________________________________
                    ( note open B string accidental )
e|----13----13--/15-----------------------------15-/17----17-19/20--19-----|
B|-17----17-----------17-18-17h18p17p15p0-17-18--------20--------------20~~~~
G|-------------------------------------------------------------------------|
D|-------------------------------------------------------------------------|
A|-------------------------------------------------------------------------|
E|-------------------------------------------------------------------------|


___Cmaj7_(x32000)__________________________________________________________
02:29                                    ( ~~  big vibrato  ~~ )
e|-------------------------------------------------------------------------|
B|-------------------------------------------------------------------------|
G|-------------19b21~~~~~~~~~~~~~r19p17h19~~~~~~~~~~~~~~~~~~~~~19^-17------|
D|--------------------------------------------------------------------19---|
A|-------------------------------------------------------------------------|
E|-------------------------------------------------------------------------|


__Fmaj7_(x33210)___________________________________________________________
                      ( ^ = slight or quarter-tone bend... )
e|-------------17----------------------------------------------------------|
B|---------17-----17--20----17---------------------------------------------|
G|-19^-------------------19---19^r19p17-19~~~~~~~~~~17h19p17---------------|
D|-----------------------------------------------------------19~~~~~~~\----|
A|-------------------------------------------------------------------------|
E|-------------------------------------------------------------------------|


___Cmaj7_(x32000)__________________________________________________________
02:35
e|---------------------8h10h12-------8h10h12-------8h10h12-------8h10--8---|
B|--------------8h10h12-------8h10h12-------8h10h12-------8h10h12----12--12-
G|-------------------------------------------------------------------------|
D|-------------------------------------------------------------------------|
A|-------------------------------------------------------------------------|
E|-------------------------------------------------------------------------|


( Below: t = thumb; i = index finger; m = middle finger; r = ring finger; p = pinky )


__Fmaj7_(x33210)___________________________________________________________
  ( next part, choose either position in brackets according to your style... )
e|-------------------------------------------------------------------------|
B|-10-8--------------------------------------------------------------------|
G|------10-12-10-9---------(9)---------------------------------------------|
D|-----------------12-10-12(14)10-12-10-9-------------------------9~~~~~~~~~
A|---------------------------------------12-10-12-10-8----8-10-12----------|
E|-----------------------------------------------------12------------------|
                                                                  i~~~~~~~~~

___Cmaj7_(x32000)__________________________________________________________
                  ( s = slur, very rapid slide, sounds like one note... )
e|-------------------------------------------------------------------------|
B|-------------------------------------------------------------------------|
G|---------------------------------7~~~\5----------------------------------|
D|~~~~~~~~~~~~~~~~~~~~~~~~~10-------------------7---5----------------------|
A|---------------------------------------------------------7s5----------3--|
E|-------------------------------------------------------------------------|
  i~~~~~~~~~~~~~~~~~~~~~~~~r       i~~~\i       r   i      r            i


__Fmaj7_(x33210)___________________________________________________________

e|-------------------------------------------------------------------------|
B|-------------------------------------------------------------------------|
G|-------------------------------------------------------------------------|
D|-------------------------------------------------------------------------|
A|-5~~~~~~~~~~~~~~~~~~~~~~~~~~~~~~~~~~~~~~~~~~~~~~~~~~~~~~~~\--------------|
E|-------------------------------------------------------------------------|
   m~~~~~~~~~~~~~~~~~~~~~~~~~~~~~~~~~~~~~~~~~~~~~~~~~~~~~~~~\


___Cmaj7_(x32000)__________________________________________________________
02:47
e|-------------------------------------------------------------------------|
B|-------------------------------------------------------------------------|
G|-------------------------------------------------------------------------|
D|--------------------------------------5~~~~~~~~~~~~~~~~~~~~~~~~~~~~~~~~~~~
A|-------------------------------------------------------------------------|
E|---------3---3-------3---3-------3---------------------------------------|
           t   t       t   t       t    i~~~~~~~~~~~~~~~~~~~~~~~~~~~~~~~~~~~

__Fmaj7_(x33210)___________________________________________________________

e|-------------------------------------------------------------------------|
B|-------------------------------------------------------------------------|
G|-------------------------------------------------------------------------|
D|--------------------------------------5~~~~~~/7~~\5~~~~~~~~~~~~~~~~~~~~~~~
A|-------------------------------------------------------------------------|
E|---------3---3-------3---3-------3---------------------------------------|
           t   t       t   t       t    i~~~~~~/i~~\i~~~~~~~~~~~~~~~~~~~~~~~

___Cmaj7_(x32000)__________________________________________________________

e|-------------------------------------------------------------------------|
B|-------------------------------------------------------------------------|
G|-------------------------------------------------------------------------|
D|--------------------------------------5-------/7----------7--/9----------|
A|--------------------------------------------------10------------------12-|
E|---------3-----------3-----------3---------------------------------------|
           t           t           t    i           r       i           m


__Fmaj7_(x33210)___________________________________________________________
  (                    alternate picking...                     )
e|-----------------------------------------------------------12h13-12h13h15-
B|---------------------------------------12-13-15-13-12-13-15--------------|
G|---------------------10-12-14--10-12-14----------------------------------|
D|---10-12-14--10-12-14----------------------------------------------------|
A|-14----------------------------------------------------------------------|
E|-------------------------------------------------------------------------|



___Cmaj7_(x32000)__________________________________________________________
02:58
e|-12h15p12-------------------------------------------------15-------------|
B|---------13---------------------15b17~~~~~~~~~~~~~~~~~~~~~----15b17~~~~~~~~
G|-----------12~~~~~~~~~~~~~~~~~~~-----------------------------------------|
D|-------------------------------------------------------------------------|
A|-------------------------------------------------------------------------|
E|-------------------------------------------------------------------------|


__Fmaj7_(x33210)___________________________________________________________

e|-15-------------------------------------------15--13--12h13p12-----------|
B|~~~~~~~~~17~r15~~~~~~13--12h13p12-----------------------------15------13-|
G|----------------------------------14--12---------------------------------|
D|-------------------------------------------------------------------------|
A|-------------------------------------------------------------------------|
E|-------------------------------------------------------------------------|


___Cmaj7_(x32000)__________________________________________________________
03:04
e|-15----13----12h13p12----------------------------------------------------|
B|----------------------15-13p12----12---h13-12h13p12----------------------|
G|-------------------------------14------------------14-16-12-14--12\10----|
D|--------------------------------------------------------------14-----12--|
A|-------------------------------------------------------------------------|
E|-------------------------------------------------------------------------|


__Fmaj7_(x33210)___________________________________________________________

e|-------------------------------------------------------------------------|
B|------------------------------------------------------8~~----------------|
G|-10p9-10-9-10p9---9-------------------9h10p9---9---7h9~~~-----9b10r9b10r9-
D|---------------12----12p10p9---9h10h12------12---------------------------|
A|----------------------------12-------------------------------------------|
E|-------------------------------------------------------------------------|


___Cmaj7_(x32000)_________________________________________________________________
03:10
e|--------------------------------------------------------------------------------|
B|--------------------------------------------------------------------------------|
G|9h10h12-9h10h12-9h10h12-9h10h12-9h10h12-9h10h12-9h10h12-9h10h12-9h10h12-9h10h12~~
D|--------------------------------------------------------------------------------|
A|--------------------------------------------------------------------------------|
E|--------------------------------------------------------------------------------|


__Fmaj7_(x33210)___________________________________________________________
03:14
e|-------------------------------------------------------------------------|
B|---------------------------------------------------------12h13-12h13p12--|
G|---------10--9h10p9---------------------------12/14--------------------14-
D|--------------------12---------------------------------------------------|
A|-------------------------12-p10------------------------------------------|
E|-------------------------------------------------------------------------|


___Cmaj7_(x32000)__________________________________________________________

e|---------15b17~~~~~~~~~~~15~~~~~~~~~~~13------12h13p12--------15------13-|
B|-------------------------------------------------------15-13-------------|
G|-12----------------------------------------------------------------------|
D|-------------------------------------------------------------------------|
A|-------------------------------------------------------------------------|
E|-------------------------------------------------------------------------|


__Fmaj7_(x33210)___________________________________________________________

e|-12h13p12----------------------------------------------------------------|
B|---------15--13------12h13p12----12--------------------------------------|
G|------------------------------14------14~~~~~~~~~~~~~~\~~~2~~~/14\-------|
D|-------------------------------------------------------------------------|
A|-------------------------------------------------------------------------|
E|-------------------------------------------------------------------------|


___Cmaj7_(x32000)__________________________________________________________
                          ( alternate picking... )
e|-------------------------------------------------------------------------|
B|---------------------------------------------------------13-15----13-15-17-
G|---------------------------------------12-15----12-14-16-------16--------|
D|---------------------12-14----12-14-15-------15--------------------------|
A|----12-14---12-14-15-------15--------------------------------------------|
E|-15------15--------------------------------------------------------------|


__Fmaj7_(x33210)___________________________________________________________

e|-13------13--15-------15--/17--15--17---20--------19---------------------|
B|-----17----------17---------------------------------------20~~-----------|
G|-------------------------------------------------------------------19b21~~
D|-------------------------------------------------------------------------|
A|-------------------------------------------------------------------------|
E|-------------------------------------------------------------------------|


___Cmaj7_(x32000)__________________________________________________________

e|-------------------------20~~~~~~~~~~~------------------------20---------|
B|-20b22~~~~~~r20~~~~~b22~~-------------20b22~~~~~~~~~~~~~~~~~~~-------22~~~
G|-------------------------------------------------------------------------|
D|-------------------------------------------------------------------------|
A|-------------------------------------------------------------------------|
E|-------------------------------------------------------------------------|


__Fmaj7_(x33210)___________________________________________________________

e|-------------------------------------------------------------------------|
B|r20~~~~~~17--------------------------------------------------------------|
G|-------------19b21r19-17-19~~~~~~~~\0------------------------------------|
D|-------------------------------------0/----------------------------------|
A|-------------------------------------0/----------------------------------|
E|-------------------------------------------------------------------------|


___Cmaj7_(x32000)__________________________________________________________
03:34
e|-20b22~~~~~~~~~~~~~~~~~~~20~~~~~~~~~~~17---------------------------------|
B|----------------------------------------------20b22~~~~~~~~~~~\/---------|
G|-------------------------------------------------------------------------|
D|-------------------------------------------------------------------------|
A|-------------------------------------------------------------------------|
E|-------------------------------------------------------------------------|


__Fmaj7_(x33210)___________________________________________________________

e|-------------20b22~~~~~~~20~~17-------17h20p17----17---------------------|
B|----------------------------------------------20----------20b22~~~~~~~\/-|
G|-------------------------------------------------------------------------|
D|-------------------------------------------------------------------------|
A|-------------------------------------------------------------------------|
E|-------------------------------------------------------------------------|


___Cmaj7_(x32000)__________________________________________________________

e|-------------20b22~~~~~~~20~~~~~~~~~~~17-h20-p17----17-------------------|
B|-------------------------------------------------20----20---17-----------|
G|----------------------------------------------------------19--19b21r19-17-
D|-------------------------------------------------------------------------|
A|-------------------------------------------------------------------------|
E|-------------------------------------------------------------------------|


__Fmaj7_(x33210)___________________________________________________________

e|-------------------------------------------------------------------------|
B|-------------------------------------------------------------------------|
G|-19~~~~~~~~~~17h19p17----19--17------------------------------------------|
D|---------------------19----------19---17---------------------------------|
A|------------------------------------------19--18--17~~~~~~~~~~\----------|
E|-------------------------------------------------------------------------|


___Cmaj7_(x32000)__________________________________________________________
03:46
e|-------------------------------------------------------------------------|
B|-------17----17----17----17--18--20---17--18--20--17--18--20--17--18--20-|
G|-0-----------------------------------------------------------------------|
D|-------------------------------------------------------------------------|
A|-------------------------------------------------------------------------|
E|-------------------------------------------------------------------------|

 | 1 - x - x - 2 - x - x - 3 - x - x -| 1 - x - x - 2 - x - x - 3 - x - x -|



__Fmaj7_(x33210)________________________________________________________________

e|-----------------------------------------------------17h18p17------------------|
B|17-18-20-17h18h20-17h18h20-17h18h20-17-17-17-17h18h20-------20-18-17-----------|
G|--------------------------------------------------------------------19-21-19-17-
D|-------------------------------------------------------------------------------|
A|-------------------------------------------------------------------------------|
E|-------------------------------------------------------------------------------|


___Cmaj7_(x32000)__________________________________________________________

e|-------------------------------------------------------------------------|
B|-------------------------------------------------------------------------|
G|-21-17-19----17\16-17p16----16----------------------16-19~~~~~\-------0--|
D|----------19-------------17----19p18p16----16h18h19----------------------|
A|----------------------------------------19-------------------------------|
E|-------------------------------------------------------------------------|


__Fmaj7_(x33210)___________________________________________________________

e|-12----------------------------------------------------------------------|
B|----15-13-12-------------------------------------------------------------|
G|-------------14-12-10----------------------------------------------------|
D|----------------------14-12-10-12-10-------------------------------------|
A|-------------------------------------14-12-10-12-10----------------------|
E|-----------------------------------------------------13-12--10--12--13/15\

 | 1 - x - x - 2 - x - x - 3 - x - x -| 1 - x - x - 2 - x - x - 3 - x - x -|


Guitar Solo ends.

Piano solo follows.


Guitar Joins in once more...


___Cmaj7_(x32000)__________________________________________________________
06:10
e|---------7h8-7h8p7-------------------------------------------------------|
B|---------------------10--8~~~~~~~~~~~~~~~~--6h8p6\5----------------------|
G|----------------------------------------------------------7---5~~~~~~~~~~~
D|-------------------------------------------------------------------------|
A|-------------------------------------------------------------------------|
E|-------------------------------------------------------------------------|

 | 1 - x - x - 2 - x - x - 3 - x - x -| 1 - x - x - 2 - x - x - 3 - x - x -|


___Fmaj7_(x33210)__________________________________________________________

e|-------------------------------------------------------------------------|
B|-------------------------------------------------------------------------|
G|-------------------------------------------------------------------------|
D|~~~~~--------------------------------------------------------------------|
A|--------(7)--5^r~~~~~3---5-------3----5b7r~~~~3---5-----------3h5p3------|
E|----------------------------------------------------------------------5--|


___Cmaj7_(x32000)__________________________________________________________

e|-------------------------------------------------------------------------|
B|-------------------------------------------------------------------------|
G|-----------------5---7/9\7~~~~~~~~~~-------------------------------------|
D|-------------5-----------------------------------------------------------|
A|-3--h5--h7---------------------------------------------------------------|
E|-------------------------------------------------------------------------|


___Fmaj7_(x33210)__________________________________________________________

e|-------------------------------------------------------------/19---------|
B|--------------------------------------------------------------19\--------|
G|-------------------------------------------------------------------------|
D|-------------------------------------------------------------------------|
A|-------------------------------------------------------------------------|
E|-------------------------------------------------------------------------|



Piano solo until:  ( chord sequence changes here... )


___Cmaj7_(x35453)__________________________________________________________
06:34
e|------------------------------------------------------------12-----------|
B|---------------------------------------------------------13----15-13-----|
G|-------------------------------------------12-14-0-12-14-------------14-12-
D|----------------------12h14p12----12-14-15-------------------------------|
A|----12-14----12-14-15----------15----------------------------------------|
E|-15-------15-------------------------------------------------------------|


___Bbmaj7_(x13231)______________________G7_(353433)________________________

e|-------------------------------------------------------------------------|
B|-------------------------------------------------------------------------|
G|-------------------------------------------------------------------------|
D|-14^r14~~~~~~---------------------------------12h14p12p10----------------|
A|----------------------------------------------------------12--10---------|
E|----------------------------------------------------------------------10-|


___Cmaj7_(x35453)__________________________________________________________

e|-------------------------------------------------------------------------|
B|-------------------------------------------------------------------------|
G|--------------------------------------9~~~~~~~~~~~~~~~~~~~~~~~~~~~~~~~~~~~~
D|-------------------------------------------------------------------------|
A|-------------------------------------------------------------------------|
E|-10-----h12~~~~~~~~~~~~~~~~~~~~~~~~~~~-----------------------------------|


___Bbmaj7_(x13231)______________________G7_(353433)________________________

e|-------------------------------------------------------------------------|
B|-------------------------------------------------------------------------|
G|--------------------------------------9h10h12-9h10h12-9h10h12-9h10h12-9--|
D|------------------------------------------------------------------------12-
A|-------------------------------------------------------------------------|
E|-------------------------------------------------------------------------|


Piano solo until:


___Bbmaj7_(x13231)______________________G7_(353433)________________________

e|-------------------------------------------------------------------------|
B|-------------------------------------------------------------------------|
G|-----------------------------------------------------------------9h10h12-|
D|---------------------------------------------------------------12--------|
A|-------------------------------------------------------------------------|
E|-------------------------------------------------------------------------|


___Cmaj7_(x35453)__________________________________________________________
06:57
e|------8h10h12------8h10h12-----8h10h12------8h10h12-----8h10h12-----8h10h12-
B|8h10h12------8h10h12-----8h10h12------8h10h12-----8h10h12-----8h10h12----|
G|-------------------------------------------------------------------------|
D|-------------------------------------------------------------------------|
A|-------------------------------------------------------------------------|
E|-------------------------------------------------------------------------|


___Bbmaj7_(x13231)______________________G7_(353433)______________________________

e|------8h10h12------8h10h12-----8h10h12-------8/10------10-12/13p12h13h15p12h15p12-
B|8h10h12------8h10h12-----8h10h12-----8h10h12-8/10-12-13-------------------------|
G|--------------------------------------------------------------------------------|
D|--------------------------------------------------------------------------------|
A|--------------------------------------------------------------------------------|
E|--------------------------------------------------------------------------------|


___Cmaj7_(x35453)__________________________________________________________

e|-------10----------------------------------------------------------------|
B|-13----------------13~~~--------------10h13p10~~~~~~~~~~\-8--------------|
G|--------------------------------------------------------------10^r~~~~8~~~~
D|-------------------------------------------------------------------------|
A|-------------------------------------------------------------------------|
E|-------------------------------------------------------------------------|


___Bbmaj7_(x13231)______________________G7_(353433)________________________

e|---------------------------------8---------------------------------------|
B|--------------------------------------11p8----x--------------------------|
G|-10~~~~~~~~~-8-------10--8~~h9------------10------8^---------------------|
D|-----------------10-----------------------------------10--8--------------|
A|--------------------------------------------------------------10~~~~~~~~~\
E|-------------------------------------------------------------------------|


___Cmaj7_(x35453)__________________________________________________________

e|-------------------------------------------------------------------------|
B|-------------------------------------------------------------------------|
G|-------------12~~~~~~~~~~~~~~~~~~~~~~~~~~~~~~~~~~~~~~~~~~~~~~~~~~~~~~~~~~~~
D|--------12h14------------------------------------------------------------|
A|-------------------------------------------------------------------------|
E|-8/12-15-----------------------------------------------------------------|


___Bbmaj7_(x13231)______________________G7_(353433)________________________

e|-15-13-12--12------------------------------------------------------------|
B|---------15--15-13-12--13p12--12-----------------------------------------|
G|---------------------14-----14--12\9-12p10p9--10p9-----------------------|
D|--------------------------------------------12----10~~~~~~~~~~~~~~~~~~~~~~~
A|-------------------------------------------------------------------------|
E|-------------------------------------------------------------------------|


___Cmaj7_(x35453)__________________________________________________________

e|-------------------------------------------------------------------------|
B|--------------------------------------11b13-------11----------8----------|
G|-------------------------------------------------------------------------|
D|-------------------------------------------------------------------------|
A|-------------------------------------------------------------------------|
E|-------------------------------------------------------------------------|


___Bbmaj7_(x13231)______________________G7_(353433)________________________

e|-------------------------------------------------------------------------|
B|-------------------------------------------------------------------------|
G|-10^r10--8---10~~~~~~~~~~8-----------------------------------------------|
D|-----------------------------10--8---------------------------------------|
A|--------------------------------------10--9---8-----------8--------------|
E|--------------------------------------------------11^-8-------10s11-12---|




Finale: ( Chord sequence changes back to Cmaj7/Fmaj7... )


___Cmaj7_(x35453)__________________________________________________________
07:21
e|-------------------------------------------------------------------------|
B|-------------------------------------------------------------------------|
G|--------------------------------------12b14-------12~~~~~~~~~~10~~~~~\9~~~-
D|-------------------------------------------------------------------------|
A|-10~~~~~~~~~~~~~~~~~~~~~\/12---------------------------------------------|
E|-------------------------------------------------------------------------|


__Fmaj7_(x33210)___________________________________________________________

e|-------------------------------------------------------------------------|
B|-------------------------------------------------------------------------|
G|-10~~~~~-9---------------------------------------------------------------|
D|-------------10~~~~~~~~~~~~~~~~~~\------------10--10h12p10---10h12p10----|
A|------------------------------------8/12------------------12----------12-|
E|-------------------------------------------------------------------------|


___Cmaj7_(x32000)__________________________________________________________

e|-------------------------------------------------------------------------|
B|-------------------------------------------------------------------------|
G|--------------------------------------12b14-------12~~~~~~~~~-10~~~~~\9--|
D|-10~~~~~~~~~~~~~~~~~~~~----------10--------------------------------------|
A|-------------------------------------------------------------------------|
E|-------------------------------------------------------------------------|


__Fmaj7_(x33210)___________________________________________________________

e|-------------------------------------------------------------------------|
B|-------------------------------------------------------------------------|
G|-10~~~~~-9---------------------------------------------------------------|
D|-------------10~~~~~~~~~~~~~~~~~~\------------10--10h12p10---10h12p10----|
A|------------------------------------8/12------------------12----------12-|
E|-------------------------------------------------------------------------|


___Cmaj7_(x32000)__________________________________________________________

e|--------------------------------------15b17~~~----15~~~~~~~~~-13~~~~~p12-|
B|---------------------13--12h13p12----------------------------------------|
G|-------12/14-12------------------14--------------------------------------|
D|-10----------------------------------------------------------------------|
A|-------------------------------------------------------------------------|
E|-------------------------------------------------------------------------|


__Fmaj7_(x33210)___________________________________________________________

e|-13~~~~~p12--------------------------------------------------------------|
B|-------------13~~~~~~~~~~~~~~~~~~~~~~~~~~~~~~~~~~~~~~~~~~~~~~~~~~~~~~~~~~\
G|-------------------------------------------------------------------------|
D|-------------------------------------------------------------------------|
A|-------------------------------------------------------------------------|
E|-------------------------------------------------------------------------|


___________________________________________________________________________

e|-7s8---------------------------------------------------------------------|
B|-----------12--------8---------------------------------------------------|
G|------------------------------9------------------------------------------|
D|--------------------------------------9----------------------------------|
A|------------------------------------------------10-------7h8p7-----------|
E|--------------------------------------------------------------------8h10p8-
( free time... )


___________________________________________________________________________

e|-------------------------------------------------------------------------|
B|-------------------------------------------------------------------------|
G|-------------------------------------------------------------------------|
D|-------------------------------------------------------------------------|
A|----------------------------------------------3~~~p2~~~~~~~~~~~~~~~~~~~~~~
E|-8p7~~~~~~~~~8h10-7h8-5h7-3h5-0--h1--h2--h3------------------------------|
( free time... )




Words & Music by Bill Nelson

Добавлено: 25.11.2013
Другие материалы по этой песне:
  • Аккорды и текст

Страница создана 01.05.2012
http://primanota.ru/be-bop-deluxe/adventures-in-a-yorkshire-landscape-chords.htm
Привет, Гость.
Предлагаем пройти революционный курс по гитаре.
Подарок от PrimaNota.Ru, забирай!