PrimaNota.ru - самый крупный в мире бесплатный архив песенных текстов, аккордов, табулатур и нот


Bbs - Habang Buhay - таба, видео

Регистрация Запомнить меня
Войти через:  Facebook Google Twitter Vk Yandex Mail.ru

Bbs - Habang Buhay - таба, видео

Печатать
Просмотров: 91
Song Title:   Habang Buhay
Band/ Artist: BBS Ft. Kean Cipriano
Album:         (2010)

Tabbed by- parale_00@yahoo.com fb
Tabbed Date- November 12, 2012 9:45 AM

NOTE:
/ = slide
p = pull off
h = hammer
~ = ring
* = palm mute
x = dead string 

 
Standard Tuning: E A D g b e

INTRO:

GtrI 

|--------------------     -------------|   
|--------------------     -------------|
|-111111-/-14---9-7--     --9-7--11-7--|
|-x-x-x-----x---x-x-- 3x  --x-x--x--x--| 2x
|-9-9-9--/-12---7-5--     --7-5--9--5--|
|--------------------     -------------|

GtrII 

|------------------------------------------------|
|------------------------------------------------|
|-7-7-7-7-------------------------------2-2------|
|-7-7-7-7----4-4-4-4----6-6-6-6----2-2--2-2------| 2x
|-5-5-5-5----4-4-4-4----6-6-6-6----2-2--0-0------|
|------------2-2-2-2----3-3-3-3----0-0-----------|
GtrIII 

|-0-0-0-0----0-0-0-0---------------0-0--0-0------|
|-3-3-3-3----3-3-3-3----3-3-3-3----3-3--3-3------|
|-2-2-2-2----2-2-2-2----2-2-2-2----x-x--x-x------| 2x
|-0-0-0-0----0-0-0-0----x-x-x-x----2-2--2-2------|
|------------x-x-x-x----x-x-x-x----2-2--0-0------|
|------------2-2-2-2----3-3-3-3----0-0-----------|
VERSE:
GtrII 
|-0---0------0-0------|
|-3---3------3-3-2h3--|
|-2---2------2-2------| 2x Just Do Some Plucking
|-0---0------2-2------|
|-x---x------0-0------|
|-2---3---------------|

REFRAIN:
GtrI 
|-101010---777---5555-----------33--|
|-101010---777---5555-55-h7-5-3-33--|
|-----------------------------------| 2x
|-----------------------------------|
|-----------------------------------|
|-----------------------------------|

GtrII
|------------------------|
|------------------------|
|------------------------|
|-4-4-4--5-5-5---7-7-7-7-|
|-4-4-4--5-5-5---7-7-7-7-|
|-2-2-2--3-3-3---5-5-5-5-|
  * *    * *     * * *  

GtrIII
|-0---0------0-0------|
|-3---3------3-3-2h3--|
|-2---2------2-2------| 2x Just Do Some Plucking
|-0---0------2-2------|
|-x---x------0-0------|
|-2---3---------------|

CHORUS:
GtrI
|----------    ----------------|
|-8-7------    ----------------|
|-----7---- 3x --7hp9-7p-h6----| 2x
|-------7--    ----------------|
|----------    ----------------|
|----------    ----------------|

GtrII

|------------------------------------------------|
|------------------------------------------------|
|-7-7-7-7-------------------------------2-2------| 2x
|-7-7-7-7----4-4-4-4----6-6-6-6----2-2--2-2------| 
|-5-5-5-5----4-4-4-4----6-6-6-6----2-2--0-0------|
|------------2-2-2-2----3-3-3-3----0-0-----------|

GtrIII
|-0-0-0-0----0-0-0-0---------------0-0--0-0------|
|-3-3-3-3----3-3-3-3----3-3-3-3----3-3--3-3------|
|-2-2-2-2----2-2-2-2----2-2-2-2----x-x--x-x------| 2x
|-0-0-0-0----0-0-0-0----x-x-x-x----2-2--2-2------|
|------------x-x-x-x----x-x-x-x----2-2--0-0------|
|------------2-2-2-2----3-3-3-3----0-0-----------|

REPEAT INTRO 1X
REPEAT VERSE
REPEAT REFRAIN
REPEAT CHORUS 4X

ADLIB:
GtrI
|---------------------------------------------------------------------------------|
|-8-7------------------7-7--------------------------------------------------------|
|-----7--------7hp9-^9-------7hp9-7-p7------------------9p-7-7-------9p-9^-11-11--| 
|----------7h9-------------------------7hp9-7-p7---7hp9---------7hp9--------------| 
|---------------------------------------------------------------------------------|
|---------------------------------------------------------------------------------|
|------------------------10-12-14-14/15p14---------------|
|----------7-8-10-10/12---------------------15~15~-------|
|------7-9-----------------------------------------------| 
|-7hp9---------------------------------------------------| 
|--------------------------------------------------------|
|--------------------------------------------------------|


GtrII

|------------------------------------------------|
|------------------------------------------------|
|-7-7-7-7----5-5-5-5----4-4-4-4----3-3--5-5------| 2x
|-7-7-7-7----5-5-5-5----4-4-4-4----3-3--5-5------| 
|-5-5-5-5----3-3-3-3----2-2-2-2----1-1--3-3------|
|------------------------------------------------|
After Adlib:
|------------------------------------------------| 
|------------------------------------------------| 
|-5-5-5-5-5-5-5-5-5------------------------------| Bass Guitar
|------------------------------------------------|
GtrII
|----------------------|
|----------------------|
|----------------------|
|----------------------|
|-5-5-5-5-5-5-5-5-5-5--|
|----------------------|
  * * * * * * * * * * 

REPEAT CHORUS 4X
REPEAT INTRO 2X
Lyrics:

It was my first tab, hopefully you like and enjoy it even if there some error. Please rate.
Thanks!
Support the Original Pinoy Music!   
Special Thanks to:
-       Orbita Drawing Paper
-       Canaria Surveying Tools
-       Ian and Friends
-       Hi-Tech Internet Café
-       Val and Friends
-       AI and Friends
-       CS Auto buy
-       Super V
-       Papa Gads And Friends
-       CNSC (BSCE 3A 3B, BSEE 3A, BSME 3A)
-       Phospix Band
Добавлено: 25.11.2013
Другие материалы по этой песне:
  • Аккорды и текст

Страница создана 25.11.2013
http://primanota.ru/bbs/habang-buhay-chords.htm
Привет, Гость.
Предлагаем пройти революционный курс по гитаре.
Подарок от PrimaNota.Ru, забирай!