PrimaNota.ru - самый крупный в мире бесплатный архив песенных текстов, аккордов, табулатур и нот


Bbs Paranoicos - Sonríe - таба, видео

Регистрация Запомнить меня
Войти через:  Facebook Google Twitter Vk Yandex Mail.ru

Bbs Paranoicos - Sonríe - таба, видео

Печатать
Просмотров: 43
hola
bueno esta cancion la sake con mi super amiga maira de
la xorisa cuidad de cajon city que la kiero muxo por que duerme
hasta tarde y tiene unos deos super grandes pa tokar 

costo mucho sacar el tema y encontramos dos intros
uds elijen cual es mejor, por favor
si uds la pueden correjir seria genial y serviria mucho

bueno los puntos . que salen al lado abajo de la tab significa
que deben hacer palm mute
y la b significa bend osea tirar la cuerda hacia arriva
ojala les sirva ^^

Intro 1
-----------------------------------
-----------------------------------
-----------------------------------
-000000-111111-555555--------0000--
-111111-333333-666666-111111-1111--
----------------------333333-------
  .....  .....  .....  .....  ..
Intro 2
------------------------------------
------------------------------------
------------------------------------
333333-555555-888888--------3333----
111111-333333-666666-555555-1111----
---------------------333333---------
 .....  .....  .....  .....  ..

Cuando escuches mi canción?
--------------------
--------------------
--------------------
-------------------- x2
-55555555-33333333--
-33333333-11111111--
 ........ ........
Cuando sepas que es mi voz...
-------------------------
-------------------------
-------------------------
-55555555555-333333333--- x2
-55555555555-333333333---
-33333333333-111111111---
Sonreirás eso y nada mas?
-----------------------------------
-----------------------------------
----------------------------------- x 2
-000000-111111-555555--------0000--
-111111-333333-666666-111111-1111--
----------------------333333-------
  .....  .....  .....  .....  ..

No dirás que fue un error?
-------------------------
-------------------------
-------------------------
-55555555555-333333333--- x4
-55555555555-333333333---
-33333333333-111111111---


Sonreirás, hazme este favor?
-----------------------------------
-----------------------------------
----------------------------------- x 2
-000000-111111-555555--------0000--
-111111-333333-666666-111111-1111--
----------------------333333-------
  .....  .....  .....  .....  ..

El problema no eres tú?

¬----------------------------------
----------------------------------
---------------------------------- x2
-8-------10101010---555555-333333-
-6---8---8-8-8-8----555555-333333-
-----6--------------333333-111111-

Solo:
--------------------------------
-11----11--13b-13-13b-11--------
--------------------------------
----12--------------------------
--------------------------------
--------------------------------
                                      X2
--------------------------
-11-----------------------
--------------------------
-----12-13-12----------12-
-------------13--12-13----
--------------------------

min.1:25, Lo hace la 2º guitarra, 3cuerda ?00000000--

min. 01:17
---------------------------
-1/8-11-10-8---1/8-11-10-8-
---------------------------
---------------------------
---------------------------
---------------------------

----------------------------------
-8------------------------13------
---10/12-10--10--10-12-12b?12b-12-
---------------12-----------------
----------------------------------
----------------------------------

--------------------------------------------------
-----------------------------13-------------------
-----------10-12-10----10-12b?12b-10--10-12/14/15-
------10-12---------12--------------12------------
-10-13--------------------------------------------
--------------------------------------------------

El problema no eres tu, tampoco yo?
----------------------------------
----------------------------------
---------------------------------- x2
-8-------10101010---555555-333333-
-6---8---8-8-8-8----555555-333333-
-----6--------------333333-111111-

Min. 02:08

-----------------------------------------
-11-------11-13b-13-13b-11--11-----------
-----------------------------------------
----12-----------------------------12-13-
-----------------------------------------
-----------------------------------------

-----------------   ---
-----------------   ---
-----555-----555- x2---
-----555-----555-   -5-
-555-777-555-333-   -5-
-777-----333-----   -7-
 ...     ...

ia hay esta toda, la segunda guitarra no la
sake por que no me la se .______________.
saluos....xaus!
Добавлено: 04.06.2016
Другие материалы по этой песне:
  • Аккорды и текст

Страница создана 04.06.2016
http://primanota.ru/bbs-paranoicos/sonrie-chords.htm
Привет, Гость.
Предлагаем пройти революционный курс по гитаре.
Подарок от PrimaNota.Ru, забирай!