PrimaNota.ru - самый крупный в мире бесплатный архив песенных текстов, аккордов, табулатур и нот


Bbs Paranoicos - Salida De Emergencia - таба, видео

Регистрация Запомнить меня
Войти через:  Facebook Google Twitter Vk Yandex Mail.ru

Bbs Paranoicos - Salida De Emergencia - таба, видео

Печатать
Просмотров: 61
Hola gente les traigo este buenisima cancion de esta banda chilena que
es de lo mejor..

Los BBS usan afinacion en RE, pero para no desafinar toda la guitarra
nosotros bajaremos a la 6 cuerda un  nos permitira hacer acordes
en quinta con solo un dedo y mas graves.

Intro X2:
e|-----------------------------------------------------|
b|-----------3-4-3-4-3---------------4/6-4-3-4-3-------|
g|-3-3--5-5-----------3~---3-3--5-5--------------3~----|
d|-3-3--5-5----------------3-3--5-5--------------------|
a|-----------5-6-5-6-5---------------6/8-6-5-6-5-------|
d|--------------------8--------------------------8~----|

e|--------------------------------------------| Aqui sale el puenteo
b|-----------3-4-3-4-3------------------------| tocado en 2 cuerdas, ahi
g|-3-3--5-5------------3--------------3-3-----| deben elegir la forma
d|-3-3--5-5-----------------1-1--3-3--3-3-----| grave o aguda de tocarlo
a|-----------5-6-5-6-5------1-1--3-3--1-1-----| o si tienen 2 guitarras
d|---------------------8----1-1--3-3----------|

D#                 G
Muerto es el adjetivo que uso para hoy,
D#                 G
dime, puedes tú hacer que exista luz.
D#                 G
Frio, no hay una chispa que haga combustión
D#                 F
en mi pecho hueco donde hubo un corazón.

INTRO

D#                 G
Dime, podrías tu abrir mi ataúd,
D#                 G
en días como hoy, tal vez asi es mejor.
D#                 G
Frágil el mundo tiembla y cae sobre mí,
D#                 F
no creo exista alguien que meresca un día así.

A# C G           D# F  G
     Llevame lejos de aqui.
A# C G           D# F  G
     Llevame lejos de aqui.
A# C G           D# F  G
     Adelanta mi reloj.
A# C G           D# F  XXXXXXXXX
     Llevame lejos

Coro:
        D#
(llevame)tan lejos como puedas,
         G
(a un lugar)no me hables de volver.          X2
         D#
(llevame)Tan lejos como puedas,
         F
(a un lugar)no me hables de volver jamas.

SOLO: G   D#  A#   F  X2

   D#
(llevame)tan lejos como puedas,
         G
(a un lugar)no me hables de volver.          X3
         D#
(llevame)Tan lejos como puedas,
         F
(a un lugar)no me hables de volver jamas.


Forma de hacer acordes:
    D#   F    G      A#      C
e|------------------------------------------|
b|------------------------------------------|
g|---------------------3--------5-----------|
d|--1----3----5----8---3---10---5-----------|
a|--1----3----5----8-O-1---10-O-3-----------|
d|--1----3----5----8-------10---------------|

Eso seria. el solo lo voy trabajando para uds.
Добавлено: 04.06.2016
Вам также может быть интересно:
Другие материалы по этой песне:
  • Аккорды и текст

Страница создана 04.06.2016
http://primanota.ru/bbs-paranoicos/salida-de-emergencia-chords.htm
Привет, Гость.
Предлагаем пройти революционный курс по гитаре.
Подарок от PrimaNota.Ru, забирай!