PrimaNota.ru - самый крупный в мире бесплатный архив песенных текстов, аккордов, табулатур и нот


Bbs Paranoicos - Paranunca - таба, видео

Регистрация Запомнить меня
Войти через:  Facebook Google Twitter Vk Yandex Mail.ru

Bbs Paranoicos - Paranunca - таба, видео

Печатать
Просмотров: 53
        Intro
----------------------------------------------
----------------------------------------------
----------------------------------------------
--555-44-555-44-----101010-121212------------- x2
--333-22-333-22-----8-8-8--101010-------------
----------------------------------------------

1º Guitarra
---------------------
---------------------
---------------------
---------------------
-7777-101010-333-555-
-5555-8-8-8--111-333-

              2º Guitarra
--------------------------------------------------------------------
--------------------------------------------------------------------
--------------------------------------------------------------------
--------------------------------------------------------------------
-7-7-7-8-7-7-7--10-10-10-12-10-10-10--3-3-3-5-3-3-3-5-5-5-7-5-5---7-
--------------------------------------------------------------------

 Corre por mi piel....
-----------------------
-----------------------
-----------------------
-----------------555--- x2
-555-222-333-555-333---
-333-000-111-333-------

 Sin lograr...
---------------------
---------------------
---------------------
---------------------  x4
-7777-101010-333-555-
-5555-8-8-8--111-333-


----------------------------------------------
----------------------------------------------
----------------------------------------------
--555-44-555-44-----101010-121212------------- x2
--333-22-333-22-----8-8-8--101010-------------
----------------------------------------------

  Desesperación...
-------------------------
-------------------------
-------------------------
--555-------------------- x2
--333-555-222-333-555----
------333-000-111-333----

 Y al final...
---------------------
---------------------
---------------------
---------------------  x4
-7777-101010-333-555-
-5555-8-8-8--111-333-


              PUNTEO
------------------------------------
------------------------------------
------------------------------------
--------------7-5---------------0---
-7--7-8-7-5-5-----7/3-3/5-5/2-2-3---
-5----------------------------------


--12-------------------------------
-----13-12-10----------------------
-----------------------------------
---------------14-12-10-9-10-9-----
-----------------------------------
-----------------------------------


--12-------------------------------
-----13-12-10----------------------
-----------------------------------
---------------14-12-10-9-10-12-----
-----------------------------------
-----------------------------------


--12-------------12------------------
-----13-12-10-------13-12-10---------
--------------12---------------------
-------------------------------------
-------------------------------------
-------------------------------------


-------------------------12-
----------------------------
-7*-9*-10*--7*-10*-9*-------
----------------------------
----------------------------
----------------------------

2ºGuitarra mientras se toca el punteo
------------------
------------------
------------------
-7--5--3--5-------
-7--5--3--5-------
-5--3--1--3-------

----------------------------
----------------------------
----------------------------
----------------------------
-777-555-333-555------------
-555-333-111-333------------


 Sin mostrar...
---------------------
---------------------
---------------------
---------------------  x4
-7777-101010-333-555-
-5555-8-8-8--111-333-


ahi esta otra buena cancion de los bbs
espero les sirva

esta chevere


Javier Leiva
 
Добавлено: 19.04.2016
Другие материалы по этой песне:
  • Аккорды и текст

Страница создана 19.04.2016
http://primanota.ru/bbs-paranoicos/paranunca-chords.htm
Привет, Гость.
Предлагаем пройти революционный курс по гитаре.
Подарок от PrimaNota.Ru, забирай!