PrimaNota.ru - самый крупный в мире бесплатный архив песенных текстов, аккордов, табулатур и нот


Bbs Paranoicos - Nueva Uno - таба, видео

Регистрация Запомнить меня
Войти через:  Facebook Google Twitter Vk Yandex Mail.ru

Bbs Paranoicos - Nueva Uno - таба, видео

Печатать
Просмотров: 61
Bueno les dejo el tema que cierra el disco Capital, que es el mejor disco
de esta banda para mi...
Esta canción al igual que Ruidos y Cristales fue acompañada de
un video clip

Intro:
|--------------0-----------------------|
|------------2-------------------------|
|----------2-------2--4---2h4----------|
|-4*--2*----------------4--------------|
|--------------------------------------|
|--------------------------------------|

|--------------0-----------------------|
|------------2-------------------------|
|----------2-------2--4---2/-----------|
|-4*--2*----------------4--------------|
|--------------------------------------|
|--------------------------------------|

D    B    F#      D  B     F#
Hacia algún lugar llevo todo nada más       /
traigo un llanto aki en mi voz              |Todo esto va con esos
si prestas atención lo escucharás           |acordes, primero con p.m.
y aunque pokos tienen fe en está canción    y luego sueltos.
y aunque no hay explicación
más que el fuego que no puedes extinguir
yo no me vuelvo a mentir nunca más.

Intro nuevamente...

D   B        F#
perdón por no pensar en ti
si te sirve de consuelo soi feliz
y aunke a veces escuchar mi corazón
D            B
te podría hacer sufrir
D            B
te podría hacer llorar
D                     F#     F#
yo no me vuelvo a mentir...   nunca más.

D F# X2
                                                 Riff.
RIFF                                            d|-----------------4*-|
ya no pierdo tiempo en explicar, nunca más      a|-2----------2-4--4*-|
pierdes tiempo en entender no preguntes más     E|----5--4--5------2*-|
ya no pierdo tiempo en explicar, nunca más
pierdes tiempo
C#pm                   F#
no preguntes nunca más.

Bueno eso es lo que les puedo ofrecer, espero que lo disfruten
Nos vemos en otra Tab...XAU
m/
Добавлено: 02.05.2016
Другие материалы по этой песне:
  • Аккорды и текст

Страница создана 02.05.2016
http://primanota.ru/bbs-paranoicos/nueva-uno-chords.htm
Привет, Гость.
Предлагаем пройти революционный курс по гитаре.
Подарок от PrimaNota.Ru, забирай!