PrimaNota.ru - самый крупный в мире бесплатный архив песенных текстов, аккордов, табулатур и нот


Bbs Paranoicos - Lo Siento - таба, видео

Регистрация Запомнить меня
Войти через:  Facebook Google Twitter Vk Yandex Mail.ru

Bbs Paranoicos - Lo Siento - таба, видео

Печатать
Просмотров: 104
Уроки эстрадного вокала в Санкт-Петербурге
BBS Paranoicos: Lo Siento
Ustedes ven los tiempos!!!
Las rayitas ke se fuck off!!!

Intro:
e|--------------|
B|--------------|
G|--------------|
D|--9--7--5--4--| 2 veces!!!
A|--9--7--5--4--|
E|--7--5--3--2--|

Verso:
e|--------------|
B|--------------|
G|--------------|
D|--9--7--5--4--| 4 veces!!!
A|--9--7--5--4--|
E|--7--5--3--2--|

coro:
e|---------------------|
B|---------------------|
G|---------------------|
D|--9----7------9----5-| 2 veces!!!
A|--9----7------9----5-|
E|--7----5------7----3-|

pre-verso:
e|--------------|
B|--------------|
G|--------------|
D|--9--7--5--4--| 2 veces!!!
A|--9--7--5--4--|
E|--7--5--3--2--|

Verso 1:
x = palm muting
e|---------------------------------|
B|---------------------------------|
G|---x-------x-------x-------x-----|
D|-9-9-9/--7-7-7/--5-5-5/--4-4-4/--| 2 veces!!!
A|-9-9-9/--7-7-7/--5-5-5/--4-4-4/--|
E|-7-7-7/--5-5-5/--3-3-3/--2-2-2/--|

Verso 2:
e|--------------|
B|--------------|
G|--------------|
D|--9--7--5--4--| 2 veces!!!
A|--9--7--5--4--|
E|--7--5--3--2--|

coro:
e|---------------------|
B|---------------------|
G|---------------------|
D|--9----7------9----5-| 2 veces!!!
A|--9----7------9----5-|
E|--7----5------7----3-|

Pre-solo:
e|--------------|
B|--------------|
G|--------------|
D|--9--7--5--4--| 2 veces!!!
A|--9--7--5--4--|
E|--7--5--3--2--|

Solo:
e|---------------------------------------------------|  ¯¯\
B|---------------------------------------------------|     \
G|---------------------------------------------------|      \
D|----9-9-9----11-11-11-12---------------------------|       \
A|----------------------------12-12-12-12-12-12-12---|        \
E|---------------------------------------------------|         \
                                                                \
e|----------------------------------------------|                > 4 Veces!!!
B|----------------------------------------------|               /
G|----------------------------------------------|              /
D|-----------12-12-12--11---------9-9-9-11------|             /
A|--10-10-10----------------9-9-9---------------|            /
E|----------------------------------------------|         __/ 


Mientras ke las otra guitarra:
e|--------------|
B|--------------|
G|--------------|
D|--9--7--5--4--| 2 veces!!!
A|--9--7--5--4--|
E|--7--5--3--2--|

Y termina:
e|-----|
B|-----|
G|-----| Dejando sonar la nota
D|--9--|
A|--9--|
E|--7--|

Cualkier korreccion a nico_harcorepunk77@
Добавлено: 02.05.2016
Другие материалы по этой песне:
  • Аккорды и текст

Страница создана 02.05.2016
http://primanota.ru/bbs-paranoicos/lo-siento-chords.htm
Привет, Гость.
Предлагаем пройти революционный курс по гитаре.
Подарок от PrimaNota.Ru, забирай!