PrimaNota.ru - самый крупный в мире бесплатный архив песенных текстов, аккордов, табулатур и нот


Bbs Paranoicos - La Pobre Mía - таба, видео

Регистрация Запомнить меня
Войти через:  Facebook Google Twitter Vk Yandex Mail.ru

Bbs Paranoicos - La Pobre Mía - таба, видео

Печатать
Просмотров: 62
Bueno traigo la corrección de uno de los mejores temas que pude escuchar
en la vida de una de las bandas mas extraordinarias... Los Golpes
Pero esta es la versión BBS del tema jiji


INTRO  G F G F D....

Con Wha Wha y vibrato
|--------------------------------------------------------------|
|--------------------------------------------------------------|
|-15~-15~-15~-15~-15~-15~-12-15--14~-14~-14~-14~-14~-14~----14-|
|--------------------------------------------------------15----|
|--------------------------------------------------------------|
|--------------------------------------------------------------|

|------------------------------------------------------------------|
|------------------------------------------------------------------|
|-15~-15~-15~-15~-15~-15~-12-15--14~-14~-14~-14~-14~-14~-15-12--9b-|
|------------------------------------------------------------------|
|------------------------------------------------------------------|
|------------------------------------------------------------------|


G                F            G
Amaneció llorando la pobre mía
G                  F         G
Quitáronle su madre mientras dormía
G
Mientras dormía mi niña
  C                       C           G
|-----------------------------------------------------------------|
|-16-15-13---------16-15-13-----------15-13-----------------------|
|-------------------------------------------15-14-15-12---14-15---|
|-----------------------------------------------------------------|
|-----------------------------------------------------------------|
|-----------------------------------------------------------------|
        Aquella noche    aquella noche

G                   C
Sus últimos suspiros
  C                           C               G
|----------------------------------------------------------------------|
|-16-15-13-------------16-15-13---------------15-13--------------------|
|--------------------------------------------------15-14-15-12---14-15-|
|----------------------------------------------------------------------|
|----------------------------------------------------------------------|
|----------------------------------------------------------------------|
         Llevan su nombre,    lleva mi nombre

  F                     G
|------------------------------------------|
|------------------------------------------|
|---15/17---------14--15-------------------|
|------------------------------------------|
|------------------------------------------|
|------------------------------------------|
  Se me iba              se me fue..

G G# A A#

A#                    A# A G
Te quedaste sin Madre
G                 F
Yo me quede sin mujer

G
La que tanto yo quería
F
La que tanto y tanto amé
G
Dejó su boca sin techo
F
Sobre el lecho que regué
G
Por las lágrimas cobardes
F
Del que no sabe que hacer
G
Y ahora nana mijita
F                    D......
y ahora nana duérmete

G                F        G
Amaneció llorando la pobre niña
G                   F    G
Se cerraron sus ojos se me moría

G                  C
Se me moría mi niña

  C                           C               G
|----------------------------------------------------------------------|
|-16-15-13-------------16-15-13---------------15-13--------------------|
|--------------------------------------------------15-14-15-12---14-15-|
|----------------------------------------------------------------------|
|----------------------------------------------------------------------|
|----------------------------------------------------------------------|
         Diciendo mama,       diciendo mama

G                    C
Si no bajas del cielo
  C                           C               G
|----------------------------------------------------------------------|
|-16-15-13-------------16-15-13---------------15-13--------------------|
|--------------------------------------------------15-14-15-12---14-15-|
|----------------------------------------------------------------------|
|----------------------------------------------------------------------|
|----------------------------------------------------------------------|
         Deja que vaya         deja que vaya

  F                     G
|------------------------------------------|
|------------------------------------------|
|---15/17---------14--15-------------------|
|------------------------------------------|
|------------------------------------------|
|------------------------------------------|
  Se me iba            se me fue...


G G# A A#

A#                    A# A G
Te quedaste sin Madre
G                 F
Yo me quede sin mujer


G
La que tanto yo quería
F
La que tanto y tanto amé
G
Dejó su boca sin techo
F
Sobre el lecho que regué
G
Por las lágrimas cobardes
F
Del que no sabe que hacer
G
Y ahora nana mijita
F                    D......
y ahora nana duérmete                X3


 Bueno y de salida suena un piano que hace esto
|-------------------------------------------------------------|
|--------------------15------------------------------15-------|
|--15----15-14-15-17----14-------14-15---15-14-15-17----14----|
|-----------------------------15------------------------------|
|-------------------------------------------------------------|
|-------------------------------------------------------------|

Y después suena una guitarra que hace esto
|-----------------------------------------------------|
|-----------------------------------------------------|
|--14/15-14-12--14/15-14-12---12/14-12-10-------------|
|-----------------------------------------------------|
|-----------------------------------------------------|
|-----------------------------------------------------|


Bueno cualquier duda, sujerencia, puteada pueden hacerlo a mi correo
edorockandroll@
Добавлено: 02.05.2016
Другие материалы по этой песне:
  • Аккорды и текст

Страница создана 02.05.2016
http://primanota.ru/bbs-paranoicos/la-pobre-mia-chords.htm
Привет, Гость.
Предлагаем пройти революционный курс по гитаре.
Подарок от PrimaNota.Ru, забирай!