PrimaNota.ru - самый крупный в мире бесплатный архив песенных текстов, аккордов, табулатур и нот


Bbs Paranoicos - Domingo - таба, видео

Регистрация Запомнить меня
Войти через:  Facebook Google Twitter Vk Yandex Mail.ru

Bbs Paranoicos - Domingo - таба, видео

Печатать
Просмотров: 97
Уроки эстрадного вокала в Санкт-Петербурге
Les dejo este temazo de los BBS que lo saque en un 100% correcto...
Todos a los que les e pasado el tab lo tocan igual que el Omar y su banda
asi que por eso se que no tiene errores... DISFRUTENLA...

|---------------------------------------|
|---------------------------------------|
|---------------------------------------|
|-3*--5*-6*-----------------------------|  *Tocar muchas veces...
|-----------3*--------------------------|
|---------------6*--3*------------------|

F             C#            G#           D#
Es muy tarde no lo piensas, nada justifica tu presencia
F         G#         D#
Si los circulos se cierran
F             C#            G#           D#
Es muy grave no es correcto me denigra yo me siento emfermo
F         G#         D#
Me traicionas me impacientas

C#                          G#    G
Que voi a hacer si es lunes otra vez

F                        G#
Antes que me niegues el instante oportuno
F                        D#
y las razones que motivan mi existencia
F             C#            G#           D#
buscare la puerta entre las ruinas de una vida pasajera
F         G#         D#
al final nadie me espera


C#                                    G#    G
que voi a hacer si es lunes otra vez, otra vez
C#                                    G#    D#
que voi a hacer si es lunes otra vez, otra vez

|-----------------------------------|
|-----------------------------------|
|--------5*--3*---------------------|
|---3*------------------------------|
|-----------------------------------|
|-----------------------------------|

G#            C
VUELVE A EMPEZAR

|-----------------------------------|
|-----------------------------------|
|--------5*--3*---------------------|
|---3*------------------------------|
|-----------------------------------|
|-----------------------------------|

G#           C
NO VA A CAMBIAR

|-----------------------------------|
|-----------------------------------|
|---5-6-5----5-6-5----5-6-5---6-5---|
|-3--------3--------3-------------6-|
|-----------------------------------|
|-----------------------------------|

|----8-9-8----8-9-8-----8-9-8---9-8-4------4-6b(8)--6b(8)--|
|--------------------------------------4-6-----------------|
|-10-------10--------10------------------------------------|
|----------------------------------------------------------|
|----------------------------------------------------------|
|----------------------------------------------------------|


C#                                    G#    G
que voi a hacer si es lunes otra vez, otra vez
C#
que voi a hacer si es lunes otra vez.

F C# G# D#

|-----------------------------------|
|-----------------------------------|
|--------5*--3*---------------------|
|---3*------------------------------|
|-----------------------------------|
|-----------------------------------|
G#            C
VUELVE A EMPEZAR

|-----------------------------------|
|-----------------------------------|
|--------5*--3*---------------------|
|---3*------------------------------|
|-----------------------------------|
|-----------------------------------|
G#           C
NO VA A CAMBIAR

|---------------------------------------|
|---------------------------------------|
|---------------------------------------|
|-3*--5*-6*--------------3--------------|
|-----------3*-----------3--------------|
|---------------6*--3*---1--------------|


En la parte que dice QUE VOY A HACER SI ES LUNES OTRA VEZ... suena un riff:

g|--6-5-6---6-5-6------|
d|--6-5-6---6-5-6------|

Ademas como tips los BBs se afinan en RE... Por lo que hay notas que
les suenan mas graves y las tocan de otras maneras, pero con esta tab
no tendran problemas en que se les escuche igual...
Добавлено: 02.05.2016
Другие материалы по этой песне:
  • Аккорды и текст

Страница создана 02.05.2016
http://primanota.ru/bbs-paranoicos/domingo-chords.htm
Привет, Гость.
Предлагаем пройти революционный курс по гитаре.
Подарок от PrimaNota.Ru, забирай!