PrimaNota.ru - самый крупный в мире бесплатный архив песенных текстов, аккордов, табулатур и нот


Bbs Paranoicos - Comisión Civil - таба, видео

Регистрация Запомнить меня
Войти через:  Facebook Google Twitter Vk Yandex Mail.ru

Bbs Paranoicos - Comisión Civil - таба, видео

Печатать
Просмотров: 90
Уроки эстрадного вокала в Санкт-Петербурге
Puta a hacer rallitas!!!
Bueno aki teni ke eskuchar la cancion pa cachar los tiempos
No me demore ni 6 minutos en sakarla

Intro 1ªparte:
e|-------------|
B|-------------|
G|--5/--7------|   4 Veces !!!
D|--5/--7------|
A|--3/--5------|
E|-------------|

Intro 2ªparte:
e|------------------------------|
B|------------------------------|
G|--5/--7-----5/--7-----5-------|
D|--5/--7-----5/--7-----5-----7-|
A|--3/--5-----3/--5-----3-----7-|
E|----------------------------5-|

Verso:
e|---------------------|
B|---------------------|
G|----7----5-----------|
D|----7----5-----7-----| 2 Veces!
A|----5----3-----7-----|
E|---------------5-----|
 'Nos Golpean en la calle....'

Coro:
e|-------------------------|
B|-------------------------|
G|---------------------5---|
D|----5----7------3----5---|
A|----5----7------3----3---|
E|----3----5------1--------|
 'Ya no kiero mas totura...'

Pre-Verso:
e|-------------|
B|-------------|
G|--5/--7------|   4 Veces !!!
D|--5/--7------|
A|--3/--5------|
E|-------------|

Verso:
e|---------------------|
B|---------------------|
G|----7----5-----------|
D|----7----5-----7-----| 2 Veces!
A|----5----3-----7-----|
E|---------------5-----|
 'Ellos dicen...'

Coro:
e|-------------------------|
B|-------------------------|
G|---------------------5---|
D|----5----7------3----5---|
A|----5----7------3----3---|
E|----3----5------1--------|
 'Ya no kiero mas totura...'

Pre-coro:
e|-------------|
B|-------------|
G|--5/--7------|   4 Veces !!!
D|--5/--7------|
A|--3/--5------|
E|-------------|

Coro:
e|-------------------------|
B|-------------------------|
G|---------------------5---|
D|----5----7------3----5---| 2 Veces!
A|----5----7------3----3---|
E|----3----5------1--------|
 'Ya no kiero mas totura...'

Final:
e|-------------|
B|-------------|
G|--5/--7------|   4 Veces !!!
D|--5/--7------|
A|--3/--5------|
E|-------------|

Termina asi!:
e|------------|
B|------------|
G|----7*------|  * (dejar sonar)
D|----7*------|
A|----5*------|
E|------------|

Fin!!! 

Correcciones al mail nico_harcorepunk77@
Добавлено: 02.05.2016
Другие материалы по этой песне:
  • Аккорды и текст

Страница создана 02.05.2016
http://primanota.ru/bbs-paranoicos/comision-civil-chords.htm
Привет, Гость.
Предлагаем пройти революционный курс по гитаре.
Подарок от PrimaNota.Ru, забирай!