PrimaNota.ru - самый крупный в мире бесплатный архив песенных текстов, аккордов, табулатур и нот


Bbs Paranoicos - Aunque No He Aprendido Nada - таба, видео

Регистрация Запомнить меня
Войти через:  Facebook Google Twitter Vk Yandex Mail.ru

Bbs Paranoicos - Aunque No He Aprendido Nada - таба, видео

Печатать
Просмотров: 73
INTRO:
             Riff x 3        [1]       E (let ring)
|---------------------|-------------------|
|---------------------|-------------------|
|------9--------5/7---|-------------------|
|------9--------5/7---|-------------------|
|--7-7---7-7-7--------|--5-5-5-5-5-4-2-2--|
|---------------------|--3-3-3-3-3-2-0-0--|
   * *   * * *           * * * * * * *

  (2)
|-----------------7-7--|
|--8-8-----10-10-------|
|------7-7-------------|
|----------------------|
|----------------------|
|----------------------|
 (3)
|----------------------|
|--8-8-----10-10--8-8--|
|------7-7-------------|
|----------------------|
|----------------------|
|----------------------|


el orden es el sgte:
riff + (1)
riff + (2)
riff + (3)
riff + (2)
riff + (3)
riff + (2)

A)
G             D                 B
ya vi que prefieres hacerte el sordo
                     C
y decir que estamos locos
        D           E
por querer vivir así

A)
ya vi que en el fondo somos problema
por querer romper cadenas
por decirte la verdad

A)
dejaste tan claro que no te importa
para ti sólo somos sobras
pero esto va a cambiar

B)
        D
y ya verás
           C
y aunque no he aprendido nada
            G               A(F)
más que un par de notas en mi guitarra

(se repite la INTRO)
Добавлено: 11.02.2016
Другие материалы по этой песне:
  • Аккорды и текст

Страница создана 11.02.2016
http://primanota.ru/bbs-paranoicos/aunque-no-he-aprendido-nada-chords.htm
Привет, Гость.
Предлагаем пройти революционный курс по гитаре.
Подарок от PrimaNota.Ru, забирай!