PrimaNota.ru - самый крупный в мире бесплатный архив песенных текстов, аккордов, табулатур и нот


Bbs Paranoicos - Arena - таба, видео

Регистрация Запомнить меня
Войти через:  Facebook Google Twitter Vk Yandex Mail.ru

Bbs Paranoicos - Arena - таба, видео

Печатать
Просмотров: 58
 No quiero imaginar...
   intro           x2
------------|---------------|
-8888888888-|---------------|
------------|-8-8-----10-10-|
------------|-8-8-8-8-10-10-|
------------|-6-6-8-8-8--8--|
------------|-----6-6-------|

No paro de pensar...
                         x2
------------------|-----------------|
------------------|-----------------|
---------8--------|8888------101010-|
---------8--------|8888-8888-101010-|
--5*****-6-5*****-|6666-8888-8-8-8--|
--3*****---3*****-|-----6666--------|

Mi corazón estalla...
                         x2
------------------|-----------------|
------------------|-----------------|
---------8--------|8888------101010-|
---------8--------|8888-8888-101010-|
--5*****-6-5*****-|6666-8888-8-8-8--|
--3*****---3*****-|-----6666--------|

De ahora en más ...
  x2         1ºGuitarra   2ºGuitarra
-----------|------------|--------------|
-----------|------------|--------------|
-8888------|------------|--------------|
-8888-8888-|-8888-777-3-|-8888-777-----|
-6666-8888-|-8888-777-3-|----------8---|
------6666-|-6666-555-1-|--------------|

Fui yo quien elegí....
--------------------------|-----------
-----------13---13---13---|----------------
-------------12---12---12-|-----------------
--------------------------|----------
-5*******-----------------|------------------
-3*******-----------------|-------------------

Salir tras mi verdad...
            x2
|-----------------|
|-----------------|
|8888------101010-|
|8888-8888-101010-|
|6666-8888-8-8-8--|
|-----6666--------|

No quiero imaginar...
                         x2
------------------|-----------------|
------------------|-----------------|
---------8--------|8888-------------|
---------8--------|8888-8888-8---10-|
--5*****-6-5*****-|6666-8888--6-8---|
--3*****---3*****-|-----6666--------|

De ahora en más ...
  x2
---------|
---------|
-888-----|
-888-888-|
-666-888-|
-----666-|


Simplemente  No voy a contestar...
1º Guitarra
-----------------------------------|
-----------------------------------|
-----------------------------------|
-8888-777-5---8888-777-3/7---------|  x2
-----------------------------------|
-----------------------------------|

------------------------------------------------|
------------------------------------------------|
-7777-555-3--7777-555-2/5---7777-555-3-3333-222-|
------------------------------------------------|
------------------------------------------------|
------------------------------------------------|


2º Guitarra

-------------------------------------
------------------------------------
------8888---------10101010--------------
-5555-8888----8888-10101010----------------
-5555-6666----8888-8-8-8-8---------------
-3333---------6666---------------------


---------
---------
---------
---------
-5******-
-3******-


Y descansar...
            x2
|-----------------|
|-----------------|
|8888------333----|
|8888-8888-333----|
|6666-8888-111----|
|-----6666--------|

  1º Guitarra
--------------------------------------------------
-10/11-10-8---------------------------------------
--------------------------------------------------
--------------8-7-8-7-8-7-8-7-8-7-8-7-8-7-8-7-8---
--------------------------------------------------
--------------------------------------------------

  2º Guitarra
--------------------------------------
--------------------------------------
--------------------------------------
--------------------------------------
-6666-3333-5555-5555-3333-------------
-6666-1111-5555-3333-1111-------------

 Y descansar...
          x2
|-----------------|
|-----------------|
|8888------333----|
|8888-8888-333----|
|6666-8888-111----|
|-----6666--------|

            1ºGuitarra
--------------------------------------------------
--------------------------------------------------
--------------------------------------------------
--------------8-7-8-7-8-7-8-7-8-7-8-7-8-7-8-7-8---
--------------------------------------------------
--------------------------------------------------

  2º Guitarra
--------------------------------------
--------------------------------------
--------------------------------------
--------------------------------------
-6666-3333-5555-5555-3333-----6--------
-6666-1111-5555-3333-1111-----6--------


una de las Mejores canciones
ahi la tienen ...

en la parte que dice  " De ahora en mas no extendere mi voz ..."

se escushan como unos punteos de fondo y
 es la misma nota pero arpegiada

esta chevere e.e

Добавлено: 02.05.2016
Другие материалы по этой песне:
  • Аккорды и текст

Страница создана 02.05.2016
http://primanota.ru/bbs-paranoicos/arena-chords.htm
Привет, Гость.
Предлагаем пройти революционный курс по гитаре.
Подарок от PrimaNota.Ru, забирай!