PrimaNota.ru - самый крупный в мире бесплатный архив песенных текстов, аккордов, табулатур и нот


Bbq Chickens - Pretty Woman - таба, видео

Регистрация Запомнить меня
Войти через:  Facebook Google Twitter Vk Yandex Mail.ru

Bbq Chickens - Pretty Woman - таба, видео

Печатать
Просмотров: 60
pretty woman




bbq chickens





feliz cumpleaños princesa mariposa en este 2 de feb.



    pick slide
e:---------------------|
B:---------------------|
G:---------------------|
D:---------------------|
A:-x/------------------|
E:-x/------------------|


e:-------------------------------------|
B:-------------------------------------|
G:-------------------------------------|
D:------------4-2-0--------------4-2-0-|
A:--------2-5----------------2-5-------|
E:-0-0--4-------------0-0--4-----------|

e:-------------------------------------|
B:-------------------------------------|
G:-------------------------------------|
D:------------4-2-0--------------4-2-0-|
A:--------2-5----------------2-5-------|
E:-0-0--4-------------0-0--4-----------|

   pretty woman
e:---------------------|
B:---------------------|
G:---------------------|
D:-2-2-----------------|
A:-0-0-----------------|
E:---------------------|
 






hillo son mex

02/02/15
Добавлено: 15.08.2015
Другие материалы по этой песне:
  • Аккорды и текст

Страница создана 15.08.2015
http://primanota.ru/bbq-chickens/pretty-woman-chords.htm
Привет, Гость.
Предлагаем пройти революционный курс по гитаре.
Подарок от PrimaNota.Ru, забирай!