PrimaNota.ru - самый крупный в мире бесплатный архив песенных текстов, аккордов, табулатур и нот


Bboy Mishmack - Getmeoff - аккорды и текст

Регистрация Запомнить меня
Войти через:  Facebook Google Twitter Vk Yandex Mail.ru

Bboy Mishmack - Getmeoff - аккорды и текст

Печатать
Просмотров: 134
Getmeoff
Bboy Mishmack
INTRO (pluck)


-----------------------------------3-----------------3-----------------2---------------0-----------|
---3----------------3-----------------2-----------2-----2-----------2-----0--------------2---------|
-----2------------2---2---------2--------0-----0-----------0-----0----------0-----0---------2------|
--------0------0--------0-----0-------------0-----------------0----------------0----0---------0----|
-----------3---------------3-----------------------------------------------------------------------|
---------------------------------------------------------------------------------------------------|
_______________________________________________________________________________________________________________

-------0-----------------------------------------------------------------------------------|
-----2---2--------2---0--------------------------------------------------------------------|
--2--------2----2--------2-----------------------------------------------------------------|
-------------0---------------1---------1--------2------------------------------------------|
----------------------------------2-------2-----2------------------------------------------|
------------------------------------------------2------------------------------------------|

     C                    G
This love is like a roller coaster
                Em                    Am
Please baby girl help me off this ride
        C                         G
A hard road but I ain't lookin' for another
       Em                    Am
So I'm praying for the final time (that you stop)
Добавлено: 11.03.2015
Другие материалы по этой песне:
  • Аккорды и текст

Страница создана 11.03.2015
http://primanota.ru/bboy-mishmack/getmeoff-chords.htm
Привет, Гость.
Предлагаем пройти революционный курс по гитаре.
Подарок от PrimaNota.Ru, забирай!