PrimaNota.ru - самый крупный в мире бесплатный архив песенных текстов, аккордов, табулатур и нот


Bboss - Kung Fu Yu - таба, видео

Регистрация Запомнить меня
Войти через:  Facebook Google Twitter Vk Yandex Mail.ru

Bboss - Kung Fu Yu - таба, видео

Печатать
Просмотров: 244
Уроки эстрадного вокала в Санкт-Петербурге
-------------------------------------------------------------------------------
                             Kung Fu Yu - BBOSS
-------------------------------------------------------------------------------
Tabbed by: Jacksta_Frettin

Tuning:E Standard

Intro

e|------------------|
B|------------------|
G|------------------|
D|--7-7---7-7-------| x4
A|--7-7---7-7-------|
E|--5-5---5-5-------|

Verse

e|--------------------|
B|--------------------|
G|--------------------|
D|--7--5--7---8-8-----| Repeat How Many Times Necessary 
A|--7--5--7---8-8-----|
E|--5--3--5---6-6-----|

Bridge

e|--------------------------|
B|--------------------------|
G|--------------------------|
D|-7-7-7--7-7-7--7-7-7------| x2
A|-7-7-7--7-7-7--7-7-7------|
E|-5-5-5--5-5-5--5-5-5------|


Chorus

e|---------------------------|
B|---------------------------|
G|---------------------------|
D|-7--5--10-7-7-7-7-7-7-7----| Repeat How Many Times Necessary 
A|-7--5--10-7-7-7-7-7-7-7----|
E|-5--3--8--5-5-5-5-5-5-5----|
Добавлено: 28.04.2015
Другие материалы по этой песне:
  • Аккорды и текст

Страница создана 28.04.2015
http://primanota.ru/bboss/kung-fu-yu-chords.htm
Привет, Гость.
Предлагаем пройти революционный курс по гитаре.
Подарок от PrimaNota.Ru, забирай!