PrimaNota.ru - самый крупный в мире бесплатный архив песенных текстов, аккордов, табулатур и нот


Bbmak - Run Away - текст песни, таба, видео

Регистрация Запомнить меня
Войти через:  Facebook Google Twitter Vk Yandex Mail.ru

Bbmak - Run Away - текст песни, таба, видео

Печатать
Просмотров: 119
Run Away by BBMak
Into Your Head

    All my own work. I choose to play the chords kinda fast but lazily.
Maybe like slow 16th notes emphasizing the 1st, 2nd, and 4th beats over
over. I hope that helps a bit. This is a nice slow song though, kind of. 
Makes me want to run away! Haha...

-Capo on 2nd fret

Chords:
Am/F:  (1x2210)
C:     (032010)
G:     (320003)
F:     (x03211)
Am:    (002210)
Em:    (022000)

Verse 1:   Close your eyes....
           C

          and run away with me
              Am7    G       F

          C   Am7   G7    Am/F

Chorus: I can make you believe it's worth it...
        C      G7         Am   Em    F
        C    G7   Am    Em   F

I'll always be...
	E------1---------------------
	B------1-------1-------------
	G----2---0-----0-------------
	D--3---------2---0-----------
	A----------3-----------------
	E------------------1---------

Bridge:    (don't know the names of these chords)
           so.....
           (335543)   (353433)
           Repeat chords until brige ends

Riff:
E----------3---------3--------------------------------------
B-----1---------1----1-----1---3----1---1-------------------
G--------0---------0---------0--------0---------------------
D-----------------------------------------------------------
A--3--------------------------------------------------------
E-----------------------------------------------------------

E--1-----1--------1--------1--------------------------------
B----1--------1--------0---------0---0----------------------
G------0--------0--------0---------0------------------------
D-----------------------------------------------------------
A--3--------------------------------------------------------
E-----------------------------------------------------------

E-----------------------------------------------------------
B-------1--------1-------1----------------------------------
G---0--------0-------0-------0---0--------------------------
D-----2--------2-------2-------2----------------------------
A--0--------------------------------------------------------
E-----------------------------------------------------------

E-----------------------------------------------------------
B--------1------------------1-------------------------------
G----0--------0---0-----0--------0---0----------------------
D------0--------0---------0--------0------------------------
A-----------------------------------------------------------
E--1------------------3-------------------------------------

Repeat once more, then on to the chorus!

        The very end is this again:
        E------1---------------------
	B------1-------1-------------
	G----2---0-----0-------------
	D--3---------2---0-----------
	A----------3-----------------
	E------------------1---------




     
Добавлено: 11.10.2013
Вам также может быть интересно:
Другие материалы по этой песне:
  • Аккорды и текст

Страница создана 17.04.2012
http://primanota.ru/bbmak/run-away-chords.htm
Привет, Гость.
Предлагаем пройти революционный курс по гитаре.
Подарок от PrimaNota.Ru, забирай!