PrimaNota.ru - самый крупный в мире бесплатный архив песенных текстов, аккордов, табулатур и нот


Bbmak - Get You Through The Night - таба, видео

Регистрация Запомнить меня
Войти через:  Facebook Google Twitter Vk Yandex Mail.ru

Bbmak - Get You Through The Night - таба, видео

Печатать
Просмотров: 153
Artist: BBMak
Song: Get You Through The Night
Album: Into Your Head
Tabbed by: Matt Florio, shempashland@aol.com or myspace.com/mattflorio
Capo 1st Fret

Chords
Em-022033 (079977)+{Power chord}
D-xx0232 (x57770)+
Cadd9-x32033 (x35533)+
G-320033 (355433)+
E-022100 (079900)+

Intro-play until chords come in
E-----2-h3---2-h3---2-h3-----------------------------|
B--3-------3-------3---------------------------------|
G----------------------------------------------------|
D----------------------------------------------------|
A----------------------------------------------------|
e----------------------------------------------------|

Verse
Em          D (2x)         Em    D  Cadd9

*these part is echoed in the background all over the song
E---3-2----------------|--3-2---3-2---3-2----------|
B-------3------------3-|------3-----3----3---------|
G---------4-5-4-2--4---|---------------------------|
D----------------------|---------------------------|
A----------------------|---------------------------|
e-----------------------|--------------------------|

Em      D (2x)        Em               D                  Cadd9
                     “All I got is the time it takes me to hurt you!”

Em      D (2x)         Em                D         Cadd9
                      “All I've given is all I got, is all she had to say.”

Chorus
     G            D             Em              Cadd9
“Give me all, give me some, give me anything you want,”
          Em             D                   Cadd9
“you know love will only get you throught the night!”

Bridge
E   Cadd9  D
E  Cadd9  D  Cadd9 D

End on the G chord
Добавлено: 07.06.2012
Другие материалы по этой песне:
  • Аккорды и текст

Страница создана 07.06.2012
http://primanota.ru/bbmak/get-you-through-the-night-chords.htm
Привет, Гость.
Предлагаем пройти революционный курс по гитаре.
Подарок от PrimaNota.Ru, забирай!