PrimaNota.ru - самый крупный в мире бесплатный архив песенных текстов, аккордов, табулатур и нот


Bbm - Why Does Love Have To Go Wrong - таба, видео

Регистрация Запомнить меня
Войти через:  Facebook Google Twitter Vk Yandex Mail.ru

Bbm - Why Does Love Have To Go Wrong - таба, видео

Печатать
Просмотров: 84
Авторы: Jack Bruce, Gary Moore, Ginger Baker

---------------------------------------------------------------------------------------------
                           Why Does Love (Have to Go Wrong)? - BBM
                                     (Moore/Bruce/Baker)
                                 Around the Next Dream [1994]
---------------------------------------------------------------------------------------------


Tabbed by: varannion
Email:     dm_hughes1@hotmail.com


This is another Bruce/Baker/Moore number which replicates a classic Cream performance. In 
this case, 'We're Going Wrong' is the track in question. The song features some typically 
muscular guitar work by Gary Moore (Gibson Les Paul & Marshall JTM45) with more than a 
passing nod to EC. There are two guitar solos here, the second a sixty-five bar outro.

Tuning: standard


Intro


     [E]                                                    D
e|----------------------------|--------------------------|--------------------------|
B|----------------------------|--------------------------|--7-----------------------|
G|----------------------------|--------------------------|--7-----------------------|
D|-----------------------5b6--|--------------------------|--7-----------------------|
A|--------------------5-------|--7-----------------------|--------------------------|
E|-----------------7----------|--------------------------|--------------------------|



      Cmaj7                      Bm7       [E]
e|----------------------------|--------------------------|--------------------------|
B|----5-----------------------|--3-----------------------|--------------------------|
G|----4-----------------------|--2-----------------------|--------------------------|
D|----5-----------------------|--4------------------5b6--|--------------------------|
A|----------------------------|------------------5-------|--7--------(7)-----(7)\3--|
E|----------------------------|-------------5h7----------|--------------------------|



      D                          Cmaj7                      Bm7
e|----------------------------|--------------------------|--------------------------|
B|----7-----------------------|--5-----------------------|--3-----------------------|
G|----7-----------------------|--4-----------------------|--2-----------------------|
D|----7-----------------------|--5-----------------------|--4-----------------------|
A|----------------------------|--------------------------|--------------------------|
E|----------------------------|--------------------------|--------------------------|

                               Verse 1

      Em                         D                          Cmaj7
e|----------------------------|--------------------------|--------------------------|
B|----8-----------------------|--7-----------------------|--5-----------------------|
G|----9-----------------------|--7-----------------------|--4-----------------------|
D|----9-----------------------|--7-----------------------|--5-----------------------|
A|----7-----------------------|--5-----------------------|--3-----------------------|
E|----------------------------|--------------------------|--------------------------|



      Bm7                        Am7                        Bm7
e|----2-----------------------|--0-----------------------|--2-----------------------|
B|----3-----------------------|--1-----------------------|--3-----------------------|
G|----2-----------------------|--0-----------------------|--2-----------------------|
D|----4-----------------------|--2-----------------------|--4-----------------------|
A|----------------------------|--0-----------------------|--2-----------------------|
E|----------------------------|--------------------------|--------------------------|



      Cmaj7                      Bm7       [E]
e|----------------------------|--------------------------|--------------------------|
B|----5-----------------------|--3-----------------------|--------------------------|
G|----4-----------------------|--2-----------------------|--------------------------|
D|----5-----------------------|--4------------------5b6--|--------------------------|
A|----3-----------------------|------------------5-------|--------------------------|
E|----------------------------|-------------5h7----------|--7-----------------------|



      D                          Cmaj7                      Bm7
e|----------------------------|--------------------------|--2-----------------------|
B|----7-----------------------|--5-----------------------|--3-----------------------|
G|----7-----------------------|--4-----------------------|--2-----------------------|
D|----7-----------------------|--5-----------------------|--4-----------------------|
A|----------------------------|--------------------------|--------------------------|
E|----------------------------|--------------------------|--------------------------|



      Am7                        Bm7                        Cmaj7
e|----0-----------------------|--2-----------------------|--------------------------|
B|----1-----------------------|--3-----------------------|--5-----------------------|
G|----0-----------------------|--2-----------------------|--4-----------------------|
D|----2-----------------------|--4-----------------------|--5-----------------------|
A|----0-----------------------|--2-----------------------|--3-----------------------|
E|----------------------------|--------------------------|--------------------------|

                                                           Pre-chorus

      Bm7         [E]            A5                         C5                                      
e|----2-----------------------|--5---5---x--5-----5------|--------------------------|
B|----3-----------------------|--5---5---x--5-----5------|--------------------------|
G|----2-----------------------|--2---2---x--2-----2------|--5---5--5---------5------|
D|----4-----------------------|--------------------------|--5---5--5---------5------|
A|----2-----------------5--7--|-----------------------0--|--3---3--3---------3---0--|
E|-----------------5h7--------|--------------------------|-----------------------0--|

                                                           Chorus

      A5                         C5                         C#m        G#m
e|----5--x--------------------|--------------------------|-------------4----(4)--2-2--|
B|----5--x--------------------|--------------------------|--5----------4----(4)--2-2--|
G|----2--x--2---2----------2--|--5--5--------5--------5--|--6----------4----(4)--2-2--|
D|----2--x--2---2----------2--|--5--5--------5--------5--|--6----------6----(6)--4-4--|
A|----------0---0----------0--|--3--3--------3--------3--|--4-------------------------|
E|----------------------------|--------------------------|----------------------------|



      F#m        G#m       B     C#m         G#m                F#m        G#m       B         
e|----2-----(2)--4---------2--|--------------4----(4)--2--2--|--2-----(2)--4---------2--|
B|----2-----(2)--4---------4--|--5-----------4----(4)--2--2--|--2-----(2)--4---------4--|
G|----2-----(2)--4---------4--|--6-----------4----(4)--2--2--|--2-----(2)--4---------4--|
D|----4-----(4)--6------------|--6-----------6----(6)--4--4--|--4-----(4)--6------------|
A|----------------------------|--4---------------------------|--------------------------|
E|----------------------------|------------------------------|--------------------------|

                                                                  Verse 2

      C#m        G#m             F#m                                E
e|---------------4------------|----------------------------------|--------------------------|
B|----5----------4------------|----------------------------------|--9-----------------------|
G|----6----------4------------|--11-11-11-11-11-11-11\-\4--------|--9-----------------------|
D|----6----------6------------|--11-11-11-11-11-11-11\-\4--------|--9-----------------------|
A|----4-----------------------|--9--9--9--9--9--9--9-\-\2--------|--------------------------|
E|----------------------------|----------------------------------|--------------------------|



      D                          Cmaj7                      Bm7       [E]
e|----------------------------|--------------------------|--------------------------|
B|----7-----------------------|--5-----------------------|--3-----------------------|
G|----7-----------------------|--4-----------------------|--2-----------------------|
D|----7-----------------------|--5-----------------------|--4------------------5b6--|
A|----------------------------|--------------------------|------------------5-------|
E|----------------------------|--------------------------|-------------5h7----------|



      Em                         D                          Cmaj7
e|----------------------------|--------------------------|--------------------------|
B|----8-----------------------|--7-----------------------|--5-----------------------|
G|----9-----------------------|--7-----------------------|--4-----------------------|
D|----9-----------------------|--7-----------------------|--5-----------------------|
A|----7--7--------------------|--5-----------------------|--3-----------------------|
E|----------------------------|--------------------------|--------------------------|



      Bm7                        Am7                        Bm7
e|----2-----------------------|--0-----------------------|--2-----------------------|
B|----3-----------------------|--1-----------------------|--3-----------------------|
G|----2-----------------------|--0-----------------------|--2-----------------------|
D|----4-----------------------|--2-----------------------|--4-----------------------|
A|----------------------------|--0-----------------------|--2-----------------------|
E|----------------------------|--------------------------|--------------------------|



      Cmaj7                      Bm7       [E]
e|----------------------------|--------------------------|--------------------------|
B|----5-----------------------|--3-----------------------|--------------------------|
G|----4-----------------------|--2-----------------------|--------------------------|
D|----5-----------------------|--4------------------5b6--|--------------------------|
A|----3-----------------------|------------------5-------|--7-----------------------|
E|----------------------------|-------------5h7----------|--------------------------|



      D                          Cmaj7                      Bm7
e|----------------------------|--------------------------|--2-----------------------|
B|----7-----------------------|--5-----------------------|--3-----------------------|
G|----7-----------------------|--4-----------------------|--2-----------------------|
D|----7-----------------------|--5-----------------------|--4-----------------------|
A|----------------------------|--------------------------|--------------------------|
E|----------------------------|--------------------------|--------------------------|



      Am7                        Bm7                        Cmaj7
e|----0-----------------------|--2-----------------------|--------------------------|
B|----1-----------------------|--3-----------------------|--5-----------------------|
G|----0-----------------------|--2-----------------------|--4-----------------------|
D|----2-----------------------|--4-----------------------|--5-----------------------|
A|----0-----------------------|--2-----------------------|--3-----------------------|
E|----------------------------|--------------------------|--------------------------|

                                                           Pre-chorus

      Bm7         [E]            A5                         C5                                      
e|----2-----------------------|--5---5---x--5-----5------|--------------------------|
B|----3-----------------------|--5---5---x--5-----5------|--------------------------|
G|----2-----------------------|--2---2---x--2-----2------|--5---5--5---------5------|
D|----4-----------------------|--------------------------|--5---5--5---------5------|
A|----2-----------------5--7--|-----------------------0--|--3---3--3---------3---0--|
E|-----------------5h7--------|--------------------------|-----------------------0--|

                                                           Chorus

      A5                         C5                         C#m        G#m
e|----5--x--------------------|--------------------------|-------------4----(4)--2-2--|
B|----5--x--------------------|--------------------------|--5----------4----(4)--2-2--|
G|----2--x--2---2----------2--|--5--5--------5--------5--|--6----------4----(4)--2-2--|
D|----2--x--2---2----------2--|--5--5--------5--------5--|--6----------6----(6)--4-4--|
A|----------0---0----------0--|--3--3--------3--------3--|--4-------------------------|
E|----------------------------|--------------------------|----------------------------|



      F#m        G#m       B     C#m         G#m                F#m        G#m       B         
e|----2-----(2)--4---------2--|--------------4----(4)--2--2--|--2-----(2)--4---------2--|
B|----2-----(2)--4---------4--|--5-----------4----(4)--2--2--|--2-----(2)--4---------4--|
G|----2-----(2)--4---------4--|--6-----------4----(4)--2--2--|--2-----(2)--4---------4--|
D|----4-----(4)--6------------|--6-----------6----(6)--4--4--|--4-----(4)--6------------|
A|----------------------------|--4---------------------------|--------------------------|
E|----------------------------|------------------------------|--------------------------|



      C#m        G#m             F#m         G#m          B     A5              B5
e|---------------4------------|--2----------(2)-----4-----2--|--5----------(5)-------------|
B|----5----------4------------|--2----------(2)-----4-----4--|--5----------(5)-------------|
G|----6----------4------------|--2----------(2)-----4-----4--|--2----------(2)--4-4-4------|
D|----6----------6------------|--4----------(4)-----6--------|--2----------(2)--4-4-4------|
A|----4-----------------------|------------------------------|--0----------(0)--2-2-2------|
E|----------------------------|------------------------------|-----------------------------|



      C5                                                         G5
e|-----------------------------|------------------------------|--3------(3)------(3)--------|
B|-----------------------------|------------------------------|--3------(3)------(3)--------|
G|----6-6-6-6-6-6-6-6-6-6-6-6--|--6\--\0----------------------|--0------(0)------(0)--2--2--|
D|----6-6-6-6-6-6-6-6-6-6-6-6--|--6\--\0----------------------|--0------(0)------(0)--2--2--|
A|----4-4-4-4-4-4-4-4-4-4-4-4--|--4\--\0-----------5-4--2--0--|-----------------------0--0--|
E|-----------------------------|------------------------------|--3------(3)------(3)--------|

                                  Guitar solo 1

      A5                            G5
e|-------------------------------|----------------------------------------|
B|------------------------10-10--|--------10-10-13b14-10--(10)--------10--|
G|----2--------(2)--12b14--------|--12b14---------------------------------|
D|----2--------(2)---------------|----------------------------------------|
A|----0--------(0)---------------|----------------------------------------|
E|-------------------------------|----------------------------------------|



      A5                          G5
e|-----------------------------|------------------------------------|
B|----13b15--(15)b17--(17)r13--|--13b14--10--(10)\5-------10-10-----|
G|-----------------------------|--------------------10h12-------11--|
D|-----------------------------|------------------------------------|
A|-----------------------------|------------------------------------|
E|-----------------------------|------------------------------------|



      A5                                          G5
e|----------10-12------------------------------|----12b14-----(14)--r12-12-10--|
B|----12b14-------12b14---12b14-12-10----10----|--(0)--------------------------|
G|------------------------------------11-------|-(0)---------------------------|
D|---------------------------------------------|-------------------------------|
A|---------------------------------------------|-------------------------------|
E|---------------------------------------------|-------------------------------|



      A5                         G5
e|----9-----(9)/0-------------|--5--------5----------------------|
B|-------------------------5--|----5-8b10---8p5------------------|
G|---------------------7b9----|-----------------7p5---5-7-7p5----|
D|----------------------------|---------------------7---------7--|
A|----------------------------|----------------------------------|
E|----------------------------|----------------------------------|



      A5                              G5
e|---------------------------------|-----------------------------|
B|---------------------------------|--------------------------3--|
G|----5b6-----------------2-----2--|--4b6------(6)r4p2-4---------|
D|--------7-5---------------2h4----|-----------------------------|
A|------------7\5-3-0-3h4-0--------|-----------------------------|
E|---------------------------------|-----------------------------|



      A5                                    G5
e|-----------------------5--------5-8p5--|-------8------------------------------------------|
B|----3p2--(2/7)-0-----5---5-8b10--------|--8b10---5-8p5-----5-8p5-----5--------------------|
G|---------------0-7b9-------------------|---------------7b9-------7b9---7b9-7-5b6---7-5----|
D|---------------------------------------|-----------------------------------------7-----7--|
A|---------------------------------------|--------------------------------------------------|
E|---------------------------------------|--------------------------------------------------|


                             pb
      A5                                     G5
e|---------------5------------------------|-------------------------------------------------|
B|-------------5-5-8/10-10-(12b)12r10-----|----13b15-13b15-13b15-13b15r13-10h13p10----10----|
G|---------5b6------------------------11--|--(0)-----------------------------------12-------|
D|----7-----------------------------------|-(0)------------------------------------------0--|
A|----------------------------------------|----------------------------------------------0--|
E|----------------------------------------|-------------------------------------------------|



      A5               [E]                    E  
e|----------------17----19------20b22------|--22b24-------------------|
B|-------------17----17--------------------|--------------------------|
G|-------14/18-----------------------------|--------------------------|
D|---(0)-----------------------------------|--------------------------|
A|---(0)-----------------------------------|--------------------------|
E|-----------------------------------------|--------------------------|



      D                          Cmaj7                      Bm7
e|----------------------------|--------------------------|--------------------------|
B|----7-----------------------|--5-----------------------|--3-----------------------|
G|----7-----------------------|--4-----------------------|--2-----------------------|
D|----7-----------------------|--5-----------------------|--4-----------------------|
A|----------------------------|--------------------------|--------------------------|
E|----------------------------|--------------------------|--------------------------|

                                Verse 3

      Em                         D                          Cmaj7
e|----------------------------|--------------------------|--------------------------|
B|----8-----------------------|--7-----------------------|--5-----------------------|
G|----9-----------------------|--7-----------------------|--4-----------------------|
D|----9-----------------------|--7-----------------------|--5-----------------------|
A|----7-----------------------|--5-----------------------|--3-----------------------|
E|----------------------------|--------------------------|--------------------------|



      Bm7                        Am7                        Bm7
e|----2-----------------------|--0-----------------------|--2-----------------------|
B|----3-----------------------|--1-----------------------|--3-----------------------|
G|----2-----------------------|--0-----------------------|--2-----------------------|
D|----4-----------------------|--2-----------------------|--4-----------------------|
A|----------------------------|--0-----------------------|--2-----------------------|
E|----------------------------|--------------------------|--------------------------|



      Cmaj7                      Bm7       [E]
e|----------------------------|--------------------------|--------------------------|
B|----5-----------------------|--3-----------------------|--------------------------|
G|----4-----------------------|--2-----------------------|--------------------------|
D|----5-----------------------|--4------------------5b6--|--------------------------|
A|----3-----------------------|------------------5-------|--------------------------|
E|----------------------------|-------------5h7----------|--7-----------------------|



      D                          Cmaj7                      Bm7
e|----------------------------|--------------------------|--2-----------------------|
B|----7-----------------------|--5-----------------------|--3-----------------------|
G|----7-----------------------|--4-----------------------|--2-----------------------|
D|----7-----------------------|--5-----------------------|--4-----------------------|
A|----------------------------|--------------------------|--------------------------|
E|----------------------------|--------------------------|--------------------------|



      Am7                        Bm7                        Cmaj7
e|----0-----------------------|--2-----------------------|--------------------------|
B|----1-----------------------|--3-----------------------|--5-----------------------|
G|----0-----------------------|--2-----------------------|--4-----------------------|
D|----2-----------------------|--4-----------------------|--5-----------------------|
A|----0-----------------------|--2-----------------------|--3-----------------------|
E|----------------------------|--------------------------|--------------------------|

                                                           Pre-chorus

      Bm7         [E]            A5                         C5                                      
e|----2-----------------------|--5---5---x--5-----5------|--------------------------|
B|----3-----------------------|--5---5---x--5-----5------|--------------------------|
G|----2-----------------------|--2---2---x--2-----2------|--5---5--5---------5------|
D|----4-----------------------|--------------------------|--5---5--5---------5------|
A|----2-----------------5--7--|-----------------------0--|--3---3--3---------3---0--|
E|-----------------5h7--------|--------------------------|-----------------------0--|

                                                           Chorus

      A5                         C5                         C#m        G#m
e|----5--x--------------------|--------------------------|-------------4----(4)--2-2--|
B|----5--x--------------------|--------------------------|--5----------4----(4)--2-2--|
G|----2--x--2---2----------2--|--5--5--------5--------5--|--6----------4----(4)--2-2--|
D|----2--x--2---2----------2--|--5--5--------5--------5--|--6----------6----(6)--4-4--|
A|----------0---0----------0--|--3--3--------3--------3--|--4-------------------------|
E|----------------------------|--------------------------|----------------------------|



      F#m        G#m       B     C#m         G#m                F#m        G#m       B         
e|----2-----(2)--4---------2--|--------------4----(4)--2--2--|--2-----(2)--4---------2--|
B|----2-----(2)--4---------4--|--5-----------4----(4)--2--2--|--2-----(2)--4---------4--|
G|----2-----(2)--4---------4--|--6-----------4----(4)--2--2--|--2-----(2)--4---------4--|
D|----4-----(4)--6------------|--6-----------6----(6)--4--4--|--4-----(4)--6------------|
A|----------------------------|--4---------------------------|--------------------------|
E|----------------------------|------------------------------|--------------------------|

                                                          

      C#m        G#m             F#m                        A5          B5      
e|---------------4------------|--2----------(2)----------|--------------------------|
B|----5----------4------------|--2----------(2)----------|--------------------------|
G|----6----------4------------|--2----------(2)----------|--------------------------|
D|----6----------6------------|--4----------(4)----------|--2-----------4-----------|
A|----4-----------------------|------------------4----4--|--0-----------2-----------|
E|----------------------------|------------------2----2--|--------------------------|



      C#5
e|-----------------14b16-14-12b13--------|-----------------------------3-3--|
B|--------------------------------14-13--|--14------(14)\5-------------3-3--|
G|---------------------------------------|-----------------------------0-0--|
D|----6-6-6-6-6-6------------------------|-----------------------------0-0--|
A|----4-4-4-4-4-4------------------------|------------------5-4--2--0-------|
E|---------------------------------------|-----------------------------3-3--|



      G5                            A5
e|----3--------(3)----(3)--------|---------------------------3-3--|
B|----3--------(3)----(3)--------|---------------------------3-3--|
G|----0--------(0)----(0)--2--2--|--2--------(2)--------(2)--0-0--|
D|----0--------(0)----(0)--2--2--|--2--------(2)--------(2)--0-0--|
A|-------------------------------|--0--------(0)--------(0)-------|
E|-------------------------------|---------------------------3-3--|



      G5                            A5
e|----3--------(3)----(3)--------|-----------------------------|
B|----3--------(3)----(3)--------|-------------------------10--|
G|----0--------(0)----(0)--2--2--|--2--------(2)------9h11-----|
D|----0--------(0)----(0)--2--2--|--2--------(2)---------------|
A|-------------------------------|--0--------(0)---------------|
E|-------------------------------|-----------------------------|

  Guitar solo 2

      G5                                     A5
e|----------------------------------------|---------------------------------------|
B|----10h12----------(12)--(12)-14-14-15--|--14----------(14)\7-10b12--(12)r10p8--|
G|----------------------------------------|---------------------------------------|
D|----------------------------------------|---------------------------------------|
A|----------------------------------------|---------------------------------------|
E|----------------------------------------|---------------------------------------|



      G5                                  A5
e|--------------------------------5----|--5----------------------------------------|
B|----12b12-(12)-----(12)--(12)\5---5--|----8b10-(10)----(10)-8b10-8b10-(10)-8b10--|
G|-------------------------------------|-------------------------------------------|
D|-------------------------------------|-------------------------------------------|
A|-------------------------------------|-------------------------------------------|
E|-------------------------------------|-------------------------------------------|



      G5                                  A5
e|------------------------5------------|------------------------------------|
B|----8b10------------(10)--8p5--------|------------------------------------|
G|------------------------------7p5----|--7b9--7b9--7b9r7--5b6--------------|
D|----------------------------------7--|------------------------7--5--------|
A|-------------------------------------|-----------------------------7p5-3--|
E|-------------------------------------|------------------------------------|



      G5                                 A5
e|------------------------------------|------------------------------------|
B|------------------------------------|-------------------------5-7-7b9-7--|
G|------------------------------------|-------------------2-(2)-5-7-7b9-7--|
D|------------------------------------|-----------------2------------------|
A|----5-3-5-3-6\5-3-5-3-5--3-5-3-5-3--|-------------3p0--------------------|
E|------------------------------------|--5----(5)-0------------------------|



      G5                                A5
e|--------------------5--------8-10--|--10b12-10p8b9-----------------------------------|
B|----5h7p5---------5-5-5-8/10-------|---------------10-7-10\5------10-12-12b13p12p10--|
G|----5h7p5---5-7b9------------------|-------------------------9/11--------------------|
D|----------7------------------------|-------------------------------------------------|
A|-----------------------------------|-------------------------------------------------|
E|-----------------------------------|-------------------------------------------------|



      G5
e|---------------------------------------|
B|----13b15--13b15----(15)--13b15--------|
G|---------------------------------------|
D|---------------------------------------|
A|---------------------------------------|
E|---------------------------------------|



      A5
e|--------------------------------------------------------------------|
B|---(15)-13b14-(14)-10----13b15-13b14-(14)-10----13b15-13-10---------|
G|----------------------11---------------------11-------------11------|
D|--------------------------------------------------------------------|
A|--------------------------------------------------------------------|
E|--------------------------------------------------------------------|



      G5                                       A5
e|------------------------------------------|---------------------------------12-14-----------|
B|----13b17------------r13-10-----------10--|--12b13-12-10h12p10----10--12b13-------12b14-12--|
G|----13b17------------r13-----------11-----|--------------------11---------------------------|
D|------------------------------------------|-------------------------------------------------|
A|------------------------------------------|-------------------------------------------------|
E|------------------------------------------|-------------------------------------------------|



      G5
e|--------------------------------------------------------|
B|----10h12p10----10-12-12b13-12-10h12p10----10-12----17--|
G|-------------11-------------------------11-------19-----|
D|--------------------------------------------------------|
A|--------------------------------------------------------|
E|--------------------------------------------------------|



      A5
e|----17------------17-----------------------------|
B|-------17-20b22------20-17h20p17-----------------|
G|---------------------------------19-17h18p17-----|
D|---------------------------------------------19--|
A|-------------------------------------------------|
E|-------------------------------------------------|



      G5
e|-----------------------------------------------------------------|
B|----------17h20p17-------17-20-17-------17-20-17-------17-20-17--|
G|----19b21----------19b21----------19b21----------19b21-----------|
D|-----------------------------------------------------------------|
A|-----------------------------------------------------------------|
E|-----------------------------------------------------------------|



      A5
e|----------------------------------------------------------17------------|
B|----------17-20-17-------17-20-17-------17-20-17-------17----20b22------|
G|----19b21----------19b21----------19b21----------19b21------------------|
D|------------------------------------------------------------------------|
A|------------------------------------------------------------------------|
E|------------------------------------------------------------------------|



      G5                               A5
e|----------------------------------|--17----19b20-19-17h19p17----17----17-17-17--|
B|---(22)b24----(24)r20---------17--|-----17-------------------19----19-----------|
G|----------------------17----19----|---------------------------------------------|
D|----------------------------------|---------------------------------------------|
A|----------------------------------|---------------------------------------------|
E|----------------------------------|---------------------------------------------|



      G5
e|----20b22----20b22----20b22----20b22------|
B|------------------------------------------|
G|------------------------------------------|
D|------------------------------------------|
A|------------------------------------------|
E|------------------------------------------|



      A5
e|----20b22-20-(20)-17----20b22-20-(20)-17----20b22-20-(20)-17-----|
B|---------------------17------------------17------------------17--|
G|-----------------------------------------------------------------|
D|-----------------------------------------------------------------|
A|-----------------------------------------------------------------|
E|-----------------------------------------------------------------|



      G5
e|----20b22-20-(20)-17----20b22-20b22-(22)-20b22-20b22-20b22-20b22--|
B|---------------------17-------------------------------------------|
G|------------------------------------------------------------------|
D|------------------------------------------------------------------|
A|------------------------------------------------------------------|
E|------------------------------------------------------------------|



      A5
e|----20-17h20p17----10--------17-------------17--|
B|----------------20----20b22-----20p17-20b21-----|
G|------------------------------------------------|
D|------------------------------------------------|
A|------------------------------------------------|
E|------------------------------------------------|



      G5
e|----------17-------------17-------------17-------------17--------|
B|----20b22----20p17-20b22----20p17-20b22----20p17-20b22----20p17--|
G|-----------------------------------------------------------------|
D|-----------------------------------------------------------------|
A|-----------------------------------------------------------------|
E|-----------------------------------------------------------------|



      A5
e|----------17-------------17--------------17-----------------|
B|----20b22----20p17-20b22----20----20b22-----20p17-----------|
G|-------------------------------19-----------------19-17-----|
D|--------------------------------------------------------19--|
A|------------------------------------------------------------|
E|------------------------------------------------------------|



      G5
e|-------------------------------------------------------------------|
B|-------------------------------17-19-19b20-19-19b20-(20)-19-19b20--|
G|----17-19-19b21-19-17h19p17----17-19-19b20-19-19b20-(20)-19-19b20--|
D|----------------------------19-------------------------------------|
A|-------------------------------------------------------------------|
E|-------------------------------------------------------------------|


      A5

e|------------------------------------------------------------17----17--|
B|----19-19b20-19-19b20-19-19b20-(20)----------------------17----17-----|
G|----19-19b20-19-19b20-19-19b20-(20)-19-17h18p17----17h18--------------|
D|------------------------------------------------19--------------------|
A|----------------------------------------------------------------------|
E|----------------------------------------------------------------------|



      G5
e|---------------------------------------------------------|
B|----17-17b19--r17-15-17----------------------------------|
G|-----------------------------16b17r16-14h16p14----14p12--|
D|--------------------------(14)-----------------16--------|
A|------------------------(14)-----------------------------|
E|---------------------------------------------------------|



      A5
e|--------------------------------------|
B|-------13-15-15b17-13b15-13b14--------|
G|----14-------------------------14-13--|
D|--------------------------------------|
A|--------------------------------------|
E|--------------------------------------|



      G5
e|---------------------------------------------------------------------|
B|-------13---------------13---------13----------13----------13--------|
G|----14----14p13-14-(14)----14p13-14---14p13h14----14p13h14----14p13--|
D|---------------------------------------------------------------------|
A|---------------------------------------------------------------------|
E|---------------------------------------------------------------------|



      A5
e|---------------------------------------------------------|
B|---------------------------------------------------------|
G|----14--12h14p12-----------------------------------------|
D|-----------------14-12h14p12-10----10-12-12h14p12p10-----|
A|--------------------------------12-------------------12--|
E|---------------------------------------------------------|



      G5
e|--------------------------------------------------------|
B|--------------------------------------------------------|
G|--------------------------------------------------------|
D|----10h12-10b11----10-12-10b11----10-12-10----10-12-10--|
A|----------------12-------------12----------12-----------|
E|--------------------------------------------------------|



      A5
e|--------------------------------------------------------------|
B|--------------------------------------------------------------|
G|--------------------------------------------------------------|
D|-------10-12-10b11----10-12-10----11h12-11----10-12-10----10--|
A|----12-------------12----------12----------12----------12-----|
E|--------------------------------------------------------------|



      G5                                         A5
e|--------------------------------------------|-------------------------------------------17--|
B|--------------------------------------------|-------------------------------------20b22-----|
G|----------------------12-14-14b17r14-12-14--|-----------------------------------------------|
D|----12h14-----------------------------------|--14p12-10b11-----------------10\2-0-----------|
A|--------------------------------------------|--------------12-10-12-------------0-----------|
E|--------------------------------------------|-----------------------------------------------|



      G5
e|-----------17--------------------------------|
B|----20b22-----20-----------------------------|
G|-----------------19b21-19-17h19p17----17-----|
D|-----------------------------------19----19--|
A|---------------------------------------------|
E|---------------------------------------------|



      A5
e|-----------------------17-----------------------------|
B|--------20b22----(22)-----20-17h20p17-----------------|
G|--------------------------------------18-17h19p17-----|
D|---(19)-------------------------------------------19--|
A|------------------------------------------------------|
E|------------------------------------------------------|



      G5
e|----------17----------------------------------17----20------|
B|----20b22----20-17-------17-20-17-------17-20----17---------|
G|-------------------19b21----------19b21---------------------|
D|------------------------------------------------------------|
A|------------------------------------------------------------|
E|------------------------------------------------------------|



      A5                                 G5
e|--------22b24--(24)---r22-17-17-17--|--17-17-17--20b22--(22)--------------|
B|------------------------------------|-------------------------------------|
G|------------------------------------|-------------------------------------|
D|------------------------------------|-------------------------------------|
A|------------------------------------|-------------------------------------|
E|------------------------------------|-------------------------------------|




      A5
e|---(22)-20b22---(22)-20b22-(22)-20b22----------|
B|-----------------------------------------------|
G|-----------------------------------------------|
D|-----------------------------------------------|
A|-----------------------------------------------|
E|-----------------------------------------------|



      G5
e|---(22)-20-17----17-19p17----------17-------------------17---------------------------------|
B|--------------20----------19p17h20----20p17----------17----20p17----17---------------------|
G|--------------------------------------------19-19b21-------------19----19p17----19p17b18---|
D|-----------------------------------------------------------------------------19------------|
A|-------------------------------------------------------------------------------------------|
E|-------------------------------------------------------------------------------------------|



      A5                                            G5
e|-----------------------------------------------|-------------------------------------|
B|-----------19--------------17-19--19b20r19-17--|--19-17--------15-----1717b18r17p15--|
G|--------(17)---------17b18---------------------|-------------------------------------|
D|-------(17)---19--19---------------------------|-------------------------------------|
A|-----------------------------------------------|-------------------------------------|
E|-----------------------------------------------|-------------------------------------|



      A5
e|---------------------------------------------------------------|
B|----17--------17-20p17----------------17-20p17-------17-20p17--|
G|-------19b21-----------19p17----19b21----------19b21-----------|
D|-----------------------------19--------------------------------|
A|---------------------------------------------------------------|
E|---------------------------------------------------------------|



      G5
e|-----------------------------------------------------------------|
B|-------------------17-20p17----17--------------------------------|
G|----19p17----19b21----------19-17-19-19b20p19p17-19-17b18-17b18--|
D|----------19-----------------------------------------------------|
A|-----------------------------------------------------------------|
E|-----------------------------------------------------------------|



      A5
e|----------------------------------------------------------|
B|------------------------------------------------14\-\9----|
G|----14----14-------14-------14---------14-------14\-\9-0--|
D|-------17----17b16----17b18----17b18------17b18-----------|
A|----------------------------------------------------------|
E|----------------------------------------------------------|



      G5
e|----3-------3---------3-------3---------3-------2----------|
B|------5p0-----5p0-------5p0-----5p0-------5p0-----5p0------|
G|----------5-------5b6-------5-------5b6-------5-------5b6--|
D|-----------------------------------------------------------|
A|-----------------------------------------------------------|
E|-----------------------------------------------------------|



      A5
e|------------5------------------------|
B|----------5---8/10-(10)-8------------|
G|----2-4/6-----------------9-9-7p5----|
D|----------------------------------7--|
A|-------------------------------------|
E|-------------------------------------|



      G5
e|----3-------3---------3-------3---------3----------------|
B|------5p0-----5p0-------5p0-----5p0-------5p0------------|
G|----------5-------5b6-------5-------5b6-------5-5b6-5b6--|
D|---------------------------------------------------------|
A|---------------------------------------------------------|
E|---------------------------------------------------------|



      A5
e|---------------------------------|
B|------------------0-10-10-10-10--|
G|----2--2--2--0-2-----------------|
D|---------------------------------|
A|---------------------------------|
E|---------------------------------|



      G5
e|------------------------------------------------------------------|
B|----------10-10-(10)-10-10-10-10----------------------------------|
G|----12b13------------------------12-9-----------------------------|
D|--------------------------------------12-10----12----10b11--------|
A|--------------------------------------------12----12-------12-12--|
E|------------------------------------------------------------------|



      A5
e|-------------------------------------------------|
B|----10-10-10-10-10-------------------------------|
G|-------------------12p9--------------------------|
D|------------------------12-10----12----10b11-----|
A|------------------------------12----12-------12--|
E|-------------------------------------------------|



      G5
e|---------------------------------------------------------|
B|-------10--------------------------10----------------10--|
G|----(10)---12p9-----------------(10)---12p9--------------|
D|---(10)---------12p10----------(10)---------12p10--------|
A|----------------------12p10h12--------------------12-----|
E|---------------------------------------------------------|



      A5
e|------------------------------------------------------------------|
B|---------------------------------------------------15----13h4-----|
G|----12p9----------------------12----14----12h14-14----14------14--|
D|---------12p10----12p10-12h14----14----14-------------------------|
A|---------------12-------------------------------------------------|
E|------------------------------------------------------------------|



      G5
e|------------------15-----------------------|
B|----15b17----(17)----15b17r15----13-15b17--|
G|-------------------------------------------|
D|-------------------------------------------|
A|-------------------------------------------|
E|-------------------------------------------|



      A5
e|---12-15p12-------12--------------------------------------------|
B|------------15b17----15b17----13----15-13-----------------------|
G|---------------------------14----14-------14-12-----------------|
D|------------------------------------------------14-13-12\10-----|
A|------------------------------------------------------------12--|
E|----------------------------------------------------------------|



      G5                               A5
e|----------------------------------|-------------------------------|
B|----------------------------------|------------------------10-10--|
G|----------------------------------|-------------------------------|
D|----10h12----10h12p10-9/14\0-0-0--|------------------------7--7---|
A|-----------------------------0-0--|--0-0-0-0-0-0-0-0-0-0-0--------|
E|----------------------------------|-------------------------------|


      | --------------------------------------- tremolo picking ---------
      G5                                 A5
e|------------------------------------|----------------------------------|
B|----10------10\-\5--10------10\-\5--|--10------10\-\5--10------10\-\5--|
G|------------------------------------|----------------------------------|
D|----7-------7-\-\2--7-------7-\-\2--|--7-------7-\-\2--7-------7-\-\2--|
A|------------------------------------|----------------------------------|
E|------------------------------------|----------------------------------|


  -------------------------------------------------------------------
      G5                             A5
e|--------------------------------|----------------------------------|
B|----10------10\-\5--10------5/--|--14------15------17------10------|
G|--------------------------------|----------------------------------|
D|----7-------7-\-\2--7-------2/--|--11------12------14------7-------|
A|--------------------------------|----------------------------------|
E|--------------------------------|----------------------------------|


  ---------------------------------- |
      G5                                A5
e|-----------------------------------|-----------------------|
B|----8-------7------5--------3------|--2--------14\-\2------|
G|-----------------------------------|--2--------14\-\2------|
D|----5-------4------2--------0------|--2--------14\-\2------|
A|-----------------------------------|-----------------------|
E|-----------------------------------|-----------------------|






Intro


| [E]                      | [E]                      | D                        | 

| Cmaj7                    | Bm7         [E]          | [E]                      |

| D                        | Cmaj7                    | Bm7                      |

| Em                       |



Verse 1

       D           Cmaj7
Take a look in the mirror
Bm7         Am7         Bm7         Cmaj7       Bm7   [E]   
What do you see?
       D           Cmaj7
Take a look deep inside you
Bm7           Am7         Bm7         Cmaj7       Bm7         A5
Are you still free?



Pre-chorus

            C5                 A5
There is no peace of mind
                C5
When love turns so unkind



Chorus

         C#m  G#m        F#m
Why does love have to go wrong?
G#m  B  C#m  G#m         F#m
When we try hard to hold on
G#m B    C#m  G#m        F#m
Why does love have to go wrong?



Verse 2

       D         Cmaj7
Take a look all around you
Bm7         Am7         Bm7         Cmaj7       Bm7   [E]   
What do you see?
            D           Cmaj7
Through the pain that surrounds you
Bm7           Am7         Bm7         Cmaj7       Bm7         A5
Are you still free?



Pre-chorus

             C5                 A5
There are no words to say
               C5
When the light fades to grey



Chorus

         C#m  G#m        F#m
Why does love have to go wrong?
G#m  B  C#m  G#m         F#m
When we try hard to hold on
G#m B    C#m  G#m        F#m
Why does love have to go wrong?
G#m  B A5 B5           C#5
Just a moment and it's gone


| C#5                      | G5                       | A5                       |



Guitar solo 1


| G5                       | A5                       | G5                       |

| A5                       | G5                       | A5                       |

| G5                       | A5                       | G5                       |

| A5                       | G5                       | A5                       |

| G5                       | A5          [E]          |



Verse 3

       D           Cmaj7
Take a look in the mirror
Bm7         Am7         Bm7         Cmaj7       Bm7   [E]   
What do you see?
          D            Cmaj7
There's a place deep inside you
Bm7          Am7         Bm7         Cmaj7       Bm7         A5
Set yourself free



Pre-chorus

            C5                 A5
There is no place to hide
             C5
When all the flames have died



Chorus

         C#m  G#m        F#m
Why does love have to go wrong?
G#m  B  C#m  G#m         F#m
When we try hard to hold on
G#m B    C#m  G#m        F#m
Why does love have to go wrong?
       A5 B5           C#5
Just a moment and it's gone


| C#5                      | G5                       | A5                       |

| G5                       | A5                       |



Guitar solo 2


| G5                       | A5                       | G5                       |

| A5                       | G5                       | A5                       |

| G5                       | A5                       | G5                       |

| A5                       | G5                       | A5                       |

| G5                       | A5                       | G5                       |

| A5                       | G5                       | A5                       |

| G5                       | A5                       | G5                       |

| A5                       | G5                       | A5                       |

| G5                       | A5                       | G5                       |

| A5                       | G5                       | A5                       |

| G5                       | A5                       | G5                       |

| A5                       | G5                       | A5                       |

| G5                       | A5                       | G5                       |

| A5                       | G5                       | A5                       |

| G5                       | A5                       | G5                       |

| A5                       | G5                       | A5                       |

| G5                       | A5                       | G5                       |

| A5                       | G5                       | A5                       |

| G5                       | A5                       | G5                       |

| A5                       | G5                       | A5                       |

| G5                       | A5                       | G5                       |

| A5                       | A5                       | A5                       |






/    slide up
\    slide down
h    hammer-on
p    pull-off
mu   mute
pb   pre-bend
co   cut off
pr   partial release
bss  bend slightly sharp
~~   vibrato


============================================================================  14 February 2015
Добавлено: 03.08.2015
Другие материалы по этой песне:
  • Аккорды и текст

Страница создана 03.08.2015
http://primanota.ru/bbm/why-does-love-have-to-go-wrong-chords.htm
Привет, Гость.
Предлагаем пройти революционный курс по гитаре.
Подарок от PrimaNota.Ru, забирай!