PrimaNota.ru - самый крупный в мире бесплатный архив песенных текстов, аккордов, табулатур и нот


B.B. King - To Know You Is To Love You - текст песни, бас-таба, видео

Регистрация Запомнить меня
Войти через:  Facebook Google Twitter Vk Yandex Mail.ru

B.B. King - To Know You Is To Love You - текст песни, бас-таба, видео

Печатать
Просмотров: 258
Tuning : E A D G 	Time Signature: 4/4

 |       |       |       |        |       |       |       |        
|--------------------------------|--------------------------------|
|------------0---3---0-----------|0---0-------0---------------0---|
|----0---3---------------3---0---|--------3---------------3-------|
|--------------------------------|--------------------------------|

 |       |       |       |        |       |       |       |        
|----------------------------1---|2---2---0---2-------2---0---2---|
|--------3-----------------------|--------------------------------|
|--------------------------------|--------------------------------|
|--------------------------------|--------------------------------|

 |       |       |       |        |       |       |       |        
|----0---5-------2-------1-----0-|0-----------0-------0-------0---|
|--------------------------------|--------3---------------3-------|
|--------------------------------|--------------------------------|
|--------------------------------|--------------------------------|

 |       |       |       |        |       |       |       |        
|----------------0-------0-------|--------------------------------|
|----3-----------------------3---|0---0-0---------0---------------|
|--------------------------------|--------0---3---------------3---|
|--------------------------------|--------------------------------|

 |       |       |       |        |       |       |       |        
|--------------------------------|--------------------------------|
|0-0-0-----------0---------------|0---0-------0-------0-------0---|
|--------0---3-------------------|--------------------------------|
|--------------------------------|--------------------------------|

 |       |       |       |        |       |       |       |        
|------------------------0-------|2---2---0---2---------------2---|
|--------3-------0---------------|--------------------------------|
|----3---------------------------|--------------------------------|
|--------------------------------|--------------------------------|

 |       |       |       |        |       |       |       |        
|------------------------2---1---|----------------------------0---|
|--------------------------------|--------3-----------------------|
|--------------------------------|--------------------------------|
|--------------------------------|--------------------------------|

 |       |       |       |        |       |       |       |        
|--------------------------------|--------------------------------|
|--------------------------------|------------0-------0-------0---|
|--------------------------------|--------------------------------|
|--------------------------------|--------------------------------|

 |       |       |       |        |       |       |       |        
|--------------------------------|0-----------0---0---0-----------|
|----------------0---------------|------------------------3-------|
|--------------------------------|--------------------------------|
|--------------------------------|--------------------------------|

 |       |       |       |        |       |       |       |        
|--------------------------------|--------------------------------|
|----0-----------0---0-----------|--------------------------------|
|------------3---------------2---|1---1---------1-1-----------3---|
|--------------------------------|--------------------------------|

 |       |       |       |        |       |       |       |        
|--------------------------------|0---0-----------0---0---0-------|
|0---0-------------------0-------|----------------------------3---|
|--------------------------------|--------------------------------|
|--------------------------------|--------------------------------|

 |       |       |       |        |       |       |       |        
|--------------------------------|--------------------------------|
|0---0---------------------------|------------------------0-------|
|--------------3-----------------|----1---------1-1---1-------1---|
|--------------------------------|--------------------------------|

 |       |       |       |        |       |       |       |        
|--------------------------------|--------------------------------|
|------------------------0-------|0-----------0-------0-------0---|
|0---0---0-----------0-----------|------------------------3-------|
|--------------------------------|--------------------------------|

 |       |       |       |        |       |       |       |        
|------------------------0---1---|----2---0---2-------2---0---2---|
|--------3-------0---------------|--------------------------------|
|----3---------------------------|--------------------------------|
|--------------------------------|--------------------------------|

 |       |       |       |        |       |       |       |        
|----0---5-------2---------------|0---0-------0---------------0---|
|--------------------------------|--------3-----------3---3-------|
|--------------------------------|--------------------------------|
|--------------------------------|--------------------------------|

 |       |       |       |        |       |       |       |        
|--------3-------0---------------|--------------------------------|
|----3---------------------------|0---------------------------0---|
|--------------------------------|--------------------------------|
|--------------------------------|--------------------------------|

 |       |       |       |        |       |       |       |        
|--------------------------------|--------------------------------|
|--------3-------------------3---|0---0-------0---------------0---|
|----------------0---3-----------|--------3-----------------------|
|--------------------------------|--------------------------------|

 |       |       |       |        |       |       |       |        
|------------------------0---1-2-|----2---0---2---------------2---|
|--------3-------0---------------|--------------------------------|
|----3---------------------------|--------------------------------|
|--------------------------------|--------------------------------|

 |       |       |       |        |       |       |       |        
|----0-----------2-------2---1---|0---0-------0---------------0---|
|--------------------------------|--------3-----------------------|
|--------------------------------|--------------------------------|
|--------------------------------|--------------------------------|

 |       |       |       |        |       |       |       |        
|--------3-----------------------|--------------------------------|
|----3---------------------------|------------0-------0-----------|
|--------------------------------|------------------------3-------|
|--------------------------------|--------------------------------|

 |       |       |       |        |       |       |       |        
|--------------------------------|--------------------------------|
|--------------------------------|0---0-------0-------0-------0---|
|----3---------------------------|--------3---------------3-------|
|--------------------------------|--------------------------------|

 |       |       |       |        |       |       |       |        
|------------------------0-------|----2---0---2---------------2---|
|--------3-------0---------------|--------------------------------|
|----3---------------------------|--------------------------------|
|--------------------------------|--------------------------------|

 |       |       |       |        |       |       |       |        
|----0---5-------2-----------1---|----0-------0---------------0---|
|--------------------------------|--------3---------------3-------|
|--------------------------------|--------------------------------|
|--------------------------------|--------------------------------|

 |       |       |       |        |       |       |       |        
|--------------------------------|--------------------------------|
|----3---------------------------|------------0---------------0---|
|--------------------------------|--------------------------------|
|--------------------------------|--------------------------------|

 |       |       |       |        |       |       |       |        
|--------------------------------|--------------------------------|
|--------------------------------|0-------------------------------|
|----3---------------------------|--------3---------------3-------|
|--------------------------------|--------------------------------|

 |       |       |       |        |       |       |       |        
|--------------------------------|----2---0---2-----------0---2---|
|--------------------------------|--------------------------------|
|--------------------------------|--------------------------------|
|--------------------------------|--------------------------------|

 |       |       |       |        |       |       |       |        
|----0---5-------2-------2---1---|0---0-------0-------0-------0---|
|--------------------------------|--------3---------------3-------|
|--------------------------------|--------------------------------|
|--------------------------------|--------------------------------|

 |       |       |       |        |       |       |       |        
|--------3-----------------------|--------------------------------|
|----3-----------------------3---|0-------------------0-0---------|
|--------------------------------|------------------------3-------|
|--------------------------------|--------------------------------|

 |       |       |       |        |       |       |       |        
|--------------------------------|----------------0---------------|
|0---0-----------0---0-----------|--------------0-------------3---|
|------------------------3-------|--------------------------------|
|--------------------------------|3-------------------------------|

 |       |       |       |        |       |       |       |        
|--------------------------------|--------------------------------|
|0---0---0-------0---0-----------|--------------------------------|
|--------------3---------3---2---|1---1-----------------------1---|
|--------------------------------|--------------------------------|

 |       |       |       |        |       |       |       |        
|--------------------------------|0-------0-------0---0---0-------|
|0---0---0-------0---0---3---4---|----------------------------3---|
|--------------------------------|--------------------------------|
|--------------------------------|--------------------------------|

 |       |       |       |        |       |       |       |        
|--------------------------------|--------------------------------|
|0---0---0-----------0-----------|--------------------------------|
|------------3-------------------|--------1-------1-----------1---|
|--------------------------------|--------------------------------|

 |       |       |       |        |       |       |       |        
|--------------------------------|--------------------------------|
|--------------------------------|0---0-------0---------------0---|
|0---0---0---0---0---------------|--------3---------------3-------|
|--------------------------------|--------------------------------|

 |       |       |       |        |       |       |       |        
|------------------------0-------|----2---0---2-------------------|
|--------3-----------------------|--------------------------------|
|----3---------------------------|--------------------------------|
|--------------------------------|--------------------------------|

 |       |       |       |        |       |       |       |        
|----0---------------------------|0-----------0-------0-------0---|
|--------------------------------|--------3---------------3-------|
|--------------------------------|--------------------------------|
|--------------------------------|--------------------------------|

 |       |       |       |        |       |       |       |        
|--------------------------------|--------------------------------|
|----3---------------------------|0---0---------------------------|
|--------------------------------|--------------------------------|
|--------------------------------|--------------------------------|

 |       |       |       |        |       |       |       |        
|--------------------------------|--------------------------------|
|0---0-0-------------0---3-------|0---0-------0-------0-------0---|
|----------------------------3---|--------3---------------3-------|
|--------------------------------|--------------------------------|

 |       |       |       |        |       |       |       |        
|------------------------0-------|----2---0---2-------2---0---2---|
|--------3-------0---------------|--------------------------------|
|----3---------------------------|--------------------------------|
|--------------------------------|--------------------------------|

 |       |       |       |        |       |       |       |        
|----0---5-------2-----------1---|0---0-------0-------0-------0---|
|--------------------------------|--------3---------------3-------|
|--------------------------------|--------------------------------|
|--------------------------------|--------------------------------|

 |       |       |       |        |       |       |       |        
|--------3-------0---0-----------|--------------------------------|
|------------------------3---3---|0---0-----------0---0-----------|
|--------------------------------|--------0-----3---------0---3---|
|--------------------------------|--------------------------------|

 |       |       |       |        |       |       |       |        
|--------------------------------|--------------------------------|
|----0-----------0---0-----------|0---0-------0-------0-----------|
|--------0-----3-----------------|--------3---------------3-------|
|--------------------------------|--------------------------------|

 |       |       |       |        |       |       |       |        
|----------------------------1---|2---2---0---2-----------0---2---|
|----------------0---------------|--------------------------------|
|--------------------------------|--------------------------------|
|--------------------------------|--------------------------------|

 |       |       |       |        |       |       |       |        
|----0---5---------------2---1---|----0-------0-------0-------0---|
|--------------------------------|--------3---------------3-------|
|--------------------------------|--------------------------------|
|--------------------------------|--------------------------------|

 |       |       |       |        |       |       |       |        
|--------3-----------------------|--------------------------------|
|----3---------------------------|0---0-------0-------0-----------|
|--------------------------------|--------3---------------0---3---|
|--------------------------------|--------------------------------|

 |       |       |       |        |       |       |       |        
|--------------------------------|--------------------------------|
|0---0-------0---3---0-----------|0---0---------------0-------0---|
|--------3-----------------------|------------------------3-------|
|--------------------------------|--------------------------------|

 |       |       |       |        |       |       |       |        
|--------------------------------|--------------------2---0---2---|
|----------------0---------------|--------------------------------|
|--------------------------------|--------------------------------|
|--------------------------------|--------------------------------|

 |       |       |       |        |       |       |       |        
|----0---------------------------|----0-------0---------------0---|
|--------------------------------|--------3---------------3-------|
|--------------------------------|--------------------------------|
|--------------------------------|--------------------------------|

 |       |       |       |        |       |       |       |        
|----------------0---------------|--------------------------------|
|----3---------------------------|0---0-------0-------0-------0---|
|--------------------------------|--------3---------------3-------|
|--------------------------------|--------------------------------|

 |       |       |       |        |       |       |       |        
|--------------------------------|--------------------------------|
|--------3---------------0---3---|0---0-------0-------0-------0---|
|----3-----------0---3-----------|--------------------------------|
|--------------------------------|--------------------------------|

 |       |       |       |        |       |       |       |        
|------------------------0-------|------------2-------------------|
|--------3-----------------------|--------------------------------|
|--------------------------------|--------------------------------|
|--------------------------------|--------------------------------|

 |       |       |       |        |       |       |       |        
|----0---5-------2-------2---1---|----0-------0-------------------|
|--------------------------------|--------3-----------------------|
|--------------------------------|--------------------------------|
|--------------------------------|--------------------------------|

 |       |       |       |        |       |       |       |        
|--------------------------------|--------------------------------|
|------------------------3-------|0-------------------------------|
|--------------------------------|------------------------------3-|
|--------------------------------|--------------------------------|

 |       |       |       |        |       |       |       |        
|--------------------------------|--------------------------------|
|--------------------------------|0-------------------------------|
|------------------------3---0---|--------------------------------|
|--------------------------------|--------------------------------|

 |       |       |       |        
|--------------------------------|
|--------------------------------|
|--------------------------------|
|--------------------------------|

Добавлено: 23.07.2012
Другие материалы по этой песне:
  • Аккорды и текст

Страница создана 08.04.2012
http://primanota.ru/bb-king/to-know-you-is-to-love-you-chords.htm
Привет, Гость.
Предлагаем пройти революционный курс по гитаре.
Подарок от PrimaNota.Ru, забирай!