PrimaNota.ru - самый крупный в мире бесплатный архив песенных текстов, аккордов, табулатур и нот


B.B. King - Stormy Monday - текст песни, бас-таба, видео

Регистрация Запомнить меня
Войти через:  Facebook Google Twitter Vk Yandex Mail.ru

B.B. King - Stormy Monday - текст песни, бас-таба, видео

Печатать
Просмотров: 74
Новый альбом группы 'Черный Кузнец' по культовому сериалу 'Сверхъестественное'!
69 BPM

G|-------0---------|------------|--------0----|--------0-----0------|
D|----2-------1-2 -|--3---------|-----2-------|-----2---------------|
A|-3--------3------|----0--1--2-|--3--------4-|--3---------3---3----|
E|-----------------|------------|-------------|---------------------|

G|-----------------|------------|--------0--3-|--5------------------|
D|--3--1--0--------|--3---------|-----2-------|-----2--3--4---------|
A|-----------3-----|----0--1--2-|--3----------|---------------------|
E|-----------------|------------|-------------|---------------------|


G|------------------0--|-----------------|--------------------------|
D|--5-5--3-3--2-2--2-2-|--3-3------------|----2--3--4---------------|
A|---------------------|-------0--1--2-2-|--3-----------------------|
E|---------------------|-----------------|--------------------------|

G|---------------------|
D|--5--2-3-4--5--5-5---|
A|---------------------|
E|---------------------|



Добавлено: 23.12.2017
Другие материалы по этой песне:
  • Аккорды и текст

Страница создана 07.07.2012
http://primanota.ru/bb-king/stormy-monday-chords.htm
Привет, Гость.
Предлагаем пройти революционный курс по гитаре.
Подарок от PrimaNota.Ru, забирай!