PrimaNota.ru - самый крупный в мире бесплатный архив песенных текстов, аккордов, табулатур и нот


B.B. King - Same Old Story (Same Old Song) - текст песни, таба, видео

Регистрация Запомнить меня
Войти через:  Facebook Google Twitter Vk Yandex Mail.ru

B.B. King - Same Old Story (Same Old Song) - текст песни, таба, видео

Печатать
Просмотров: 192
BB King - Same old story, same old song
https://www.youtube.com/watch?v=PZ7boBgAZVM

Tuning: Standard (EADGBe)

Intro:

e -13-10-10------------------|
B ------------10-------------|
G ---------------12p10-------|
D ---------------------12-12-|
A ---------------------------|
E ---------------------------|

e -13-10-10------------------|
B ------------13-10x-10------|
G ---------------------------|
D ---------------------------|
A ---------------------------|
E ---------------------------|

e -13-10----------------------------|
B ------------10--------------------|
G ---------------12p10--------------|
D ---------------------12-12---(12)-|
A ----------------------------------|
E ----------------------------------|

e -13-10----------------------------|
B -------10-------------------------|
G ----------12p10-------10----------|
D ----------------12-------12p10----|
A -------------------------------12-|
E ----------------------------------|

"Same old stooo.."

e -----------------|
B ---10------------|
G ------12p10-12---|
D -----------------|
A -----------------|
E -----------------|

"Same old song..."

e -------------------|
B -------------------|
G ---12-12p10--------|
D -------------12-12-|
A -------------------|
E -------------------|
Добавлено: 04.09.2015
Другие материалы по этой песне:
  • Аккорды и текст

Страница создана 02.04.2012
http://primanota.ru/bb-king/same-old-story-same-old-song-chords.htm
Привет, Гость.
Предлагаем пройти революционный курс по гитаре.
Подарок от PrimaNota.Ru, забирай!