PrimaNota.ru - самый крупный в мире бесплатный архив песенных текстов, аккордов, табулатур и нот


B.B. King - Every Day I Have The Blues - Live At The Regal - таба, бас-таба, видео

Регистрация Запомнить меня
Войти через:  Facebook Google Twitter Vk Yandex Mail.ru

B.B. King - Every Day I Have The Blues - Live At The Regal - таба, бас-таба, видео

Печатать
Просмотров: 138
EVERY DAY I HAVE THE BLUES (Live)

As recorded by B.B. King
(From the 1965 Album LIVE AT THE REGAL)

Words and Music by Peter Chatman
Arranged by B.B. King

Transcribed by Slowhand


Gtr I (E A D G B E) - 'B.B. King - Electric Guitar'


 Intro
  Q=172(8=s8)
  N.C.
 4/4
  Gtr I
                            ~~~
                                   |---3----|
  Wx12          Q  E  E  E  Q.     E    +E  E Q  H
|-------------|------------------|--------------------|
|-------------|---------11-11----|-9b11-(9)-----------|
|-------------|------10----------|--------------------|
|-------------|------------------|--------------------|
|-------------|------------------|--------------------|
|-------------|------------------|--------------------|


                              ~~~
  E  E a  E  E     +Q.   E    Q.   E E E E E
|------9s10-11b13-(11)---9-|-------9-----6---|
|---11---------------------|-11--------6---6-|
|--------------------------|-----------------|
|--------------------------|-----------------|
|--------------------------|-----------------|
|--------------------------|-----------------|


  H    Q  E E    E Q.       Q  a E E
|-----------6-|----9b9.5--------------|
|-----------6s|=11---------11--9s6----|
|-------------|-----------------------|
|-------------|-----------------------|
|-------------|-----------------------|
|-------------|-----------------------|


                |-3-|        |-3--|
  H    Q  E E   E E E  Q     E E  E Q
|-------------|-----6------------------|
|-------------|---6---10b11----9s10----|
|-----------3s|=7----------------------|
|-------------|------------------------|
|-------------|------------------------|
|-------------|------------------------|


                        ~~
             |---3---|          |----3----|
  E  E      +E   +E  E  Q  Q    E  E     +E  H     Q
|---11b13==(11)r(11)p9--------|--------------------------|
|----------------------11-----|---11b13r(11)p9-----------|
|-----------------------------|-------------------11\----|
|-----------------------------|--------------------------|
|-----------------------------|--------------------------|
|-----------------------------|--------------------------|


                        1st Verse
                         N.C.
  W          W           Wx12
|----------|----------||---------||
|----------|----------||---------||
|----------|----------||---------||
|----------|----------||---------||
|----------|----------||---------||
|----------|----------||---------||


 2nd Verse                      Guitar Solo
  N.C.                           N.C.
  Wx11          H    Q  a E E    E E Q  H      E E E  E  Q.    E
|-------------|---------------||-6-----------|-----6-------------|
|-------------|-------------6-||-------------|---6---10s11----11-|
|-------------|---------5s7---||-------------|-------------------|
|-------------|---------------||-------------|-------------------|
|-------------|---------------||-------------|-------------------|
|-------------|---------------||-------------|-------------------|


  E  E Q  H      E  E a  E  E  +Q       +E  E
|-9-10---------|------9s10-11-(11)b13--(11)-9-|
|--------------|---11-------------------------|
|--------------|------------------------------|
|--------------|------------------------------|
|--------------|------------------------------|
|--------------|------------------------------|


   ~~~
   Q.   E +Q       Q    E  Q      E      +E   +S  S  Q
|-------9-(9)b9.5-----|---11b13--11b13==(11)r(11)p9------|
|-11------------------|-----------------------------11---|
|---------------------|----------------------------------|
|---------------------|----------------------------------|
|---------------------|----------------------------------|
|---------------------|----------------------------------|


  E  S S E E H      E E E E +Q   E  E
|-9---------------|-----6-6-(6)-------|
|---11p9s4--------|---6------------11-|
|-----------------|-------------------|
|-----------------|-------------------|
|-----------------|-------------------|
|-----------------|-------------------|


                            ~~~
   E  E  +E       +E   +E   Q.     E  E a  E  E      +E   +E  E  E
|-11-10-(10)b11==(10)r(10)-------|------9s10-11b13==(11)r(11)-9-----|
|--------------------------11----|---11-------------------------11--|
|--------------------------------|----------------------------------|
|--------------------------------|----------------------------------|
|--------------------------------|----------------------------------|
|--------------------------------|----------------------------------|


                                        |---3---|
  Q       E E  Q.   a  E   E  Q.       +E   +E  E  E E
|-9b9.5-------------9h10-|---11b13====(11)r(11)p9------|
|--------11-9-11---------|------------------------11---|
|------------------------|-----------------------------|
|------------------------|-----------------------------|
|------------------------|-----------------------------|
|------------------------|-----------------------------|


   Q     Q  H      E  E     +Q    +Q.   E
|-11b13----------|---11b13-(11)--(11)---9--|
|----------------|-------------------------|
|----------------|-------------------------|
|----------------|-------------------------|
|----------------|-------------------------|
|----------------|-------------------------|


   ~~~
                                   |------3------|
   Q.   E +E      E Q    E  Q.    +E       +E   +E  Q
|-------9-(9)b9.5------|---11----(11)b12==(11)r(11)p9--|
|-11-------------------|-------------------------------|
|----------------------|-------------------------------|
|----------------------|-------------------------------|
|----------------------|-------------------------------|
|----------------------|-------------------------------|


        ~~
   E E  H    Q    E a  Q   E  E  E  E  E
|-11-9----------|-------------------------|
|-11---11-------|---------11-13----11-11--|
|---------------|---6s11--------12--------|
|---------------|-------------------------|
|---------------|-------------------------|
|---------------|-------------------------|


         ~~~
   a  E  Q.   H      E a  E E E E E E E
|-------13---------|---8s10s8p6---------|
|-13s16------------|------------6-------|
|------------------|--------------6-----|
|------------------|----------------8-8-|
|------------------|--------------------|
|------------------|--------------------|


                                  |-3-|
  E E E E E E    Q    E E E E E E S S S E
|-------6---8b10----|-------8-----6h8p6-----|
|-----8-------------|---6-8-----8-------6---|
|-5-8---------------|-----------------------|
|-------------------|-----------------------|
|-------------------|-----------------------|
|-------------------|-----------------------|


                            3rd Verse
                             N.C.
  E E  Q  H      W           Wx12
|-6------------|----------||---------||
|---6\---------|----------||---------||
|--------------|----------||---------||
|--------------|----------||---------||
|--------------|----------||---------||
|--------------|----------||---------||


 4th Verse
  N.C.
  Wx11          H    Q  a  E E   W
|-------------|----------------|------||
|-------------|----------------|------||
|-------------|---------7s10---|------||
|-------------|----------------|------||
|-------------|----------------|------||
|-------------|----------------|------||


 Outro
             Slower Q.=61
  N.C.
              3/8
  Wx2          a Q  E
|------------|--------*|
|------------|-3s5s=3-*|
|------------|--------*|
|------------|-3s5s=3-*|
|------------|--------*|
|------------|--------*|


Duration Legend
---------------
W - whole; H - half; Q - quarter; E - 8th; S - 16th; T - 32nd; X - 64th; a - acciaccatura
+ - note tied to previous; . - note dotted; .. - note double dotted
Uncapitalized letters represent notes that are staccato (1/2 duration)
Irregular groupings are notated above the duration line
Duration letters will always appear directly above the note/fret number it represents the
duration for.  Duration letters with no fret number below them represent rests.  Multi-
bar rests are notated in the form Wxn, where n is the number of bars to rest for.  Low
melody durations appear below the staff

Tablature Legend
----------------
 h   - hammer-on
 p   - pull-off
 b   - bend
 pb  - pre-bend
 r   - bend release (if no number after the r, then release immediately)
 /\  - slide into or out of (from/to "nowhere")
 s   - legato slide
 S   - shift slide
  - natural harmonic
[n]  - artificial harmonic
n(n) - tapped harmonic
 ~   - vibrato
 tr  - trill
 T   - tap
 TP  - trem. picking
 PM  - palm muting
\n/  - tremolo bar dip; n = amount to dip
 \n  - tremolo bar down
 n/  - tremolo bar up
/n\  - tremolo bar inverted dip
 =   - hold bend; also acts as connecting device for hammers/pulls
 <>  - volume swell (louder/softer)
 x   - on rhythm slash represents muted slash
 o   - on rhythm slash represents single note slash

Misc Legend
-----------
 |  - bar
||  - double bar
||o - repeat start
o|| - repeat end
*|  - double bar (ending)
 :  - bar (freetime)
 $  - Segno
 &  - Coda
Tempo markers -  = BPM(8/16=s8/s16), where s8 = swing 8ths, s16 = swing 16ths
Добавлено: 04.09.2015
Другие материалы по этой песне:

Страница создана 04.09.2015
http://primanota.ru/bb-king/every-day-i-have-blues-live-at-regal-chords.htm
Привет, Гость.
Предлагаем пройти революционный курс по гитаре.
Подарок от PrimaNota.Ru, забирай!