PrimaNota.ru - самый крупный в мире бесплатный архив песенных текстов, аккордов, табулатур и нот


Bb Brunes - Dynamitez Moi - бас-таба, видео

Регистрация Запомнить меня
Войти через:  Facebook Google Twitter Vk Yandex Mail.ru

Bb Brunes - Dynamitez Moi - бас-таба, видео

Печатать
Просмотров: 153
Dynamitez Moi - BB Brunes

Premiere tab, soyez indulgent =\
J'ai un peu de mal a faire des mesures toujours de 4 temps..
Tab realisee a l'oreille, mais il ne doit pas trop y avoir de "fausses notes" ^^

Enjoy!! 

le debut est seulement a la guitare...
G|--------|--------|
D|--------|--------|	
A|--------|--------|
E|--------|--------|


00:16 (basse non obligatoire)

G|----------|----------|----------|--------------|
D|----------|----------|----------|--------------|	
A|----------|--5-------|--3----3--|--7--77777777-|
E|--5----3--|-------5--|----------|--------------|


pre refrain (normalement ya que la guitare, mais moi je le fais aussi,.. pour le fun =D)

G|-----------------|
D|-----------------|	
A|--00-022-233-322-|
E|-----------------|


refrain

G|--------------------|-----------------------|
D|--3-3--33-----------|-----------------------|		x2
A|-----------7-7--77--|-----------------------|
E|--------------------|--5-558-3-5--55-8--3-5-|

G|--------------------|
D|--3-3--33-----------|
A|-----------7-7--77--|
E|--------------------|


couplet

G|-------------|-----------------|-------------|----------------|
D|-------------|----------567--7-|-------------|----------------|	
A|-------------|--535--567-------|-3--3---3--3-|-5--65--65--65--|
E|--5-5---3-3--|-3---------------|-------------|----------------|

G|-------------|-----------------|-------------|----------------|
D|-------------|----------567--7-|-------------|----------------|	
A|-------------|--535--567-------|-3--3---3--3-|-7----77777777--|
E|--5-5---3-3--|-3---------------|-------------|----------------|


...pre refrain + refrain...


break

G|----------------|----------------|
D|----------------|----------------|	x3
A|----------------|----------3--3--|
E|--5--5----3--3--|--1--1----------|

G|----------------|----------------|
D|----------------|----------------|	
A|----------------|----------------|
E|--5--5----3--3--|--1-------3-----|

G|-----------------------|
D|-----------------------|		
A|-----------------------|
E|--5-558-3-5--55-8--3-5-|


refrain

G|--------------------|-----------------------|
D|--3-3--33-----------|-----------------------|		jusqu'a la fin.
A|-----------7-7--77--|-----------------------|
E|--------------------|--5-558-3-5--55-8--3-5-|


Question? tiobvan@hotmail.fr
Добавлено: 27.03.2012
Другие материалы по этой песне:
  • Аккорды и текст

Страница создана 27.03.2012
http://primanota.ru/bb-brunes/dynamitez-moi-chords.htm
Привет, Гость.
Предлагаем пройти революционный курс по гитаре.
Подарок от PrimaNota.Ru, забирай!