PrimaNota.ru - самый крупный в мире бесплатный архив песенных текстов, аккордов, табулатур и нот


The Baytovens - Waiting For You - бас-таба, видео

Регистрация Запомнить меня
Войти через:  Facebook Google Twitter Vk Yandex Mail.ru

The Baytovens - Waiting For You - бас-таба, видео

Печатать
Просмотров: 65
Tabbed by: 6METAL6BASSIST6
E-mail: petergriffinav@gmail.com

Tuning: EADG

G|----------------------------------------------------------------|
D|5-----------5-----------5-------3-----------3-----------3-------| x2
A|----------------------------------------------------------------|
E|----------------------------------------------------------------|

G|----------------4-----------------------------------------------|
D|2-----------2-----------2-----------------------4---------------|
A|--------------------------------2-----------2-----------2-------|
E|----------------------------------------------------------------|

G|----------------------------------------------------------------|
D|------------------------------------------------5---3---0-------|
A|3-----------3---3-------3-----------------------------------3---|
E|--------------------------------3-----------3-------------------|

G|----------------4-----------------------------------------------|
D|2-----------2-----------2-----------------------4---------------|
A|--------------------------------2-----------2-----------2-------|
E|----------------------------------------------------------------|

G|----------------------------------------------------------------|
D|--------------------------------0---0---0---0---0---0---0---0-/-|
A|3-----------3---3-------3---------------------------------------|
E|----------------------------------------------------------------|

0:23

G|----------------------------------------------------------------|
D|5-----------5-----------5-------3-----------3-----------3-------| x2
A|----------------------------------------------------------------|
E|----------------------------------------------------------------|

G|----------------4-----------------------------------------------|
D|2-----------2-----------2-----------------------4---------------|
A|--------------------------------2-----------2-----------2-------|
E|----------------------------------------------------------------|

G|----------------------------------------------------------------|
D|------------------------------------------------5---3---0-------|
A|3-----------3---3-------3-----------------------------------3---|
E|--------------------------------3-----------3-------------------|

G|----------------4---4-------------------------------------------|
D|2-----------2-----------2-----------------------4---------------|
A|--------------------------------2-----------2-----------2-------|
E|----------------------------------------------------------------|

G|----------------------------------------------------------------|
D|--------------------------------0---0---0---0---0---0---0---0-/-|
A|3-----------3---3-------3---------------------------------------|
E|----------------------------------------------------------------|

0:43

G|----------------------------------------------------------------|
D|5-----------5-----------5-------3-----------3-----------3-------| x2
A|----------------------------------------------------------------|
E|----------------------------------------------------------------|

G|----------------4-----------------------------------------------|
D|2-----------2-----------2-----------------------4---------------|
A|--------------------------------2-----------2-----------2-------|
E|----------------------------------------------------------------|

G|----------------------------------------------------------------|
D|------------------------------------------------5---3---0-------|
A|3-----------3---3---3---3-----------------------------------3---|
E|--------------------------------3-----------3-------------------|

G|----------------4-----------------------------------------------|
D|2-----------2-----------2-----------------------4---------------|
A|--------------------------------2-----------2-----------2-------|
E|----------------------------------------------------------------|

G|----------------------------------------------------------------|
D|--------------------------------0---0---0---0---0---0---0---0-/-|
A|3-----------3---3-------3---------------------------------------|
E|----------------------------------------------------------------|

1:04

G|----------------------------------------------------------------|
D|5-----------5-----------5-------3-----------3-----------3-------| x2
A|----------------------------------------------------------------|
E|----------------------------------------------------------------|

G|----------------4-----------------------------------------------|
D|2-----------2-----------2-----------------------4---------------|
A|--------------------------------2-----------2-----------2-------|
E|----------------------------------------------------------------|

G|----------------------------------------------------------------|
D|------------------------------------------------5---3---0-------|
A|3-----------3---3-------3-----------------------------------3---|
E|--------------------------------3-----------3-------------------|

G|----------------4-----------------------------------------------|
D|2-----------2-----------2-----------------------4---------------|
A|--------------------------------2-----------2-----------2-------|
E|----------------------------------------------------------------|

G|----------------------------------------------------------------|
D|--------------------------------0---0---0---0---0---0---0---0-/-|
A|3-----------3---3-------3---------------------------------------|
E|----------------------------------------------------------------|

1:25

G|----------------------------------------------------------------|
D|5-----------5-----------5-------3-----------3-----------3-------| x2
A|----------------------------------------------------------------|
E|----------------------------------------------------------------|

G|----------------4---2-------------------------------------------|
D|2-----------2-------------------2-------------------------------|
A|----------------------------------------------------------------|
E|----------------------------------------------------------------|

1:36

G|----------------------------------------------------------------|
D|5-----------5-----------5-------3-----------3-----------3-------| x2
A|----------------------------------------------------------------|
E|----------------------------------------------------------------|

G|----------------------------------------------------5---3-------|
D|5-----------5-----------5-------3-----------3---------------5---|
A|----------------------------------------------------------------|
E|----------------------------------------------------------------|

G|----------------------------------------------------------------|
D|5-----------5-----------5-------3-----------3-----------3-------|
A|----------------------------------------------------------------|
E|----------------------------------------------------------------|

G|----------------------------------------------------------------|
D|5-------5-----5-5-------5-------3-----------3-----------3-------|
A|----------------------------------------------------------------|
E|----------------------------------------------------------------|

G|----------------------------------------------------------------|
D|5-------------------------------3-------------------------------|
A|----------------------------------------------------------------|
E|----------------------------------------------------------------|

G|--------------------------------|
D|5-------------------------------|
A|--------------------------------|
E|--------------------------------|
Добавлено: 08.06.2016
Другие материалы по этой песне:
  • Аккорды и текст

Страница создана 08.06.2016
http://primanota.ru/baytovens/waiting-for-you-chords.htm
Привет, Гость.
Предлагаем пройти революционный курс по гитаре.
Подарок от PrimaNota.Ru, забирай!