PrimaNota.ru - самый крупный в мире бесплатный архив песенных текстов, аккордов, табулатур и нот


Bayside - Well Be Ok - текст песни, таба, видео

Регистрация Запомнить меня
Войти через:  Facebook Google Twitter Vk Yandex Mail.ru

Bayside - Well Be Ok - текст песни, таба, видео

Печатать
Просмотров: 176
Tabbed by: Scott Crowe
Email:  Crowe_41@hotmail.com

Tuning: Drop D (drop C)

Thanx lostfuze for your response to the last one.

Another awesome song by Baside.  I left out the rhythms of this tab but by listening
to the song you should be able to pick them up.  Also read the captions under the tabs
for guidence.  If there are any changes you see please e-mail and let me know thanx!.

We'll be O.K., we both got what we need. I got sex and you got fame.

INTRO CHORDS                         INTRO RIFF
e|--------------|---------------------------------|--------------------------|
B|--------------|---------------------------------|--------------------------|
G|--5-----------|-----------------------2---5-----|--------------------------|
D|--5-pick slide|---5-----2-------------2---5-----|--------4p5p4--7p045---2--|
A|--3-----------|---5-----2---4x then---0---3-----|-2p3p2-----------------2--|
D|--------------|---5-----2-----------------------|------5----------------2--|
  Intro - Hold this first chord, There is also a big pick slide, Then you just
repeat the other to chords untill the very end where it switches up leading into
the verse
main chords   variation      Just before chorus             2X Pre-chorus 
e|-------------------------------------------------|-------------------------|
B|-------------------------------------------------|---0p1p0------0p1p0------| 
G|------------------4-------------2---5------------|--------2----------2p0---|
D|---5---2--------5-4-2-----------2---5------------|----------------------1--|
A|---5---2--------5-2-2-----------0---3------------|-------------------------|riff
D|---5---2--------5---2----------------------------|-------------------------|
   Verse - These are just the chords not the struming pattern.  The struming
pattern is like One by one by the Foo Fighters.  Each chord is played like 10
times then swithces.  There is also a variation where he switches up to a b
chord before going back to the d just though I'd put it there for sake of
completeness.  Once again there is a switch up just before the chorus.
e|---------------------------------------------------------------------------|
B|---------------------------------------------------------------------------|
G|-------------4------5------------------------------------------------------|
D|----2--0--5--4---2--5--5---------------------------------------------------|2x
A|----2--0--5--2---2--3--5----0-2--------------------------------------------|
D|----2--0--5------2-----5--5-----0------------------------------------------|
  Chorus - These are the chord for the chorus.  When you play it palm mute it
for two strokes then let ring.  As I was tabbing it I noticed that the c - chord
(355) is actually played low in the song which means their guitars are probably
in drop C, but since I do not want to re-write this entire tab playing the other
C-chord still sounds fine.
 bridge     end of bridge               solo

e|-------------|--------|----------------------------------------------------|
B|-------------|--------|--3-1-0-1-0--0------------------0-1-0---------------|
G|-----4-------|---2--5-|-----------2---0------0-0-2-0-0-------2-0-----------|
D|--5--4--2--0-|---2--5-|-----------------0p2--------------------------------|
A|--5--2--2--0-|---0--3-|----------------------------------------------------|
D|--5-----2--0-|--------|----------------------------------------------------|
    
e|---------------------------------------------------------------------------|
B|-0p1p0---0p1p0---0p1p0-----------------4p0-0-2-0--0002---------------------|2x
G|------2--------2------2p0-----------------------------2--------------------|
D|--------------------------1------------------------------------------------|
A|---------------------------------------------------------------------------|
D|---------------------------------------------------------------------------|
   Bridge/Solo.  So the chords are repeated through the hole bridge except for
just before the chorus where it goes the usual progression as before.  During
the bridge there is a second guitar playing the hole time but it is very difficult
to hear on my speakers so I tabbed the solo from the part that I could hear which
comes just after the opera like oh's from the singer.  The last chorus is palm muted.

Intro
Verse
Chorus 
Verse
Chorus
Bridge
Chorus
===============================================================================
Добавлено: 20.07.2012
Другие материалы по этой песне:
  • Аккорды и текст

Страница создана 01.03.2012
http://primanota.ru/bayside/well-be-ok-chords.htm
Привет, Гость.
Предлагаем пройти революционный курс по гитаре.
Подарок от PrimaNota.Ru, забирай!