PrimaNota.ru - самый крупный в мире бесплатный архив песенных текстов, аккордов, табулатур и нот


Bayside - Olivers Army - таба, видео

Регистрация Запомнить меня
Войти через:  Facebook Google Twitter Vk Yandex Mail.ru

Bayside - Olivers Army - таба, видео

Печатать
Просмотров: 87
Авторы музыки: Declan Patrick MacManus
Авторы текста: Declan Patrick MacManus
*This is my first time writing out a tab, so bare with me. I learned it quick by 
ear so I decided to upload this quickly. May not be 100% correct.

*Palm mutes, slides, hammer ons/offs, rhythms are not noted in the tab. 
Incorporate them after listening to the track. 

*Email me at dominictestino@gmail.com with my corrections. Thanks!
_____________________________________________________________________________

Bayside - Oliver's Army (Elvis Costello Cover)
Rhythm Guitar with intro Lead "solo" TAB

Tuning - Standard (EADGBE)

Intro:                                       (x2)        
[------------------------------------------------]
[--1211--12--14--12--11--12----------------------]
[------11--11--11--11--11-----9-99-9911-1111-11--]
[-----------------------------9-99-9911-1111-11--]
[-----------------------------7-77-77 9- 9 9- 9--]
[------------------------------------------------]

Verse 1/2 - "Don't start me talking..."/"There was a..." 
[------------------------------------------------]
[------------------------------------------------]
[--8~--------------3~------8~--------------0~----]
[--9~------2~------4~------9~------2~------1~----]
[--9~------2~------4~------9~------2~------1~----]
[--7~------0~------2~------7~------0~------------]

"Called careers information..."/"Only takes one..."
[------------------------------------------------]
[------------------------------------------------]
[------------------------------------------------]
[--66666666--88888888--66666666--88888888--------]
[--44444444--66666666--44444444--66666666--------]
[--44444444--66666666--44444444--66666666--------]

Chorus1 - "Oliver's Army is..."
[------------------------------------------------]
[------------------------------------------------]
[--88888888------3333--88888888------3333--------]
[--99999999-2222-4444--99999999-2222-4444--------]
[--99999999-2222-4444--99999999-2222-4444--------]
[--77777777-0000-2222--77777777-0000-2222--------]

Chorus1 - "And I would rather..."     
[------------------------------------------------]
[------------------------------------------------]
[------------------------------------------------]
[--9999-8888-6666-4444-22222222-44444444---------]
[--9999-8888-6666-4444-22222222-44444444---------]
[--7777-6666-4444-2222-00000000-22222222---------]

**Go back to Lead solo intro 1 time
***Proceed to Verse 1/2 then to Chorus 1

Bridge to Chorus 2 (Same as Intro Solo)
[------------------------------------------------]
[--1211--12--14--12--11--12----------------------]
[------11--11--11--11--11-----9-99-9911-1111-11--]
[-----------------------------9-99-9911-1111-11--]
[-----------------------------7-77-77 9- 9 9- 9--]
[------------------------------------------------]

Chorus Style 2 - "Hong Kong is up..."
[------------------------------------------------]
[------------------------------------------------]
[------------------------------------------------]
[--88888888-66666666-44444444-33333333-----------]
[--66666666-44444444-22222222-11111111-----------]
[--66666666-44444444-22222222-11111111-----------]

Chorus Style 2 - "We could be in Palestine..." (x3) 
[---------------------]
[---------------------]
[---------------------]
[--44444444-66666666--]
[--22222222-44444444--]
[--22222222-44444444--]

Key Change - Verse 2 - "But there's no danger..."
[----------------------------------------]
[----------------------------------------]
[----------------------------------------]
[--11(16 times)-88888888-66666666--------]
[--9 (16 times)-66666666-44444444--------]
[--9 (16 times)-66666666-44444444--------]

"Though it could be arranged..."
[----------------------------------------]
[----------------------------------------]
[----------------------------------------]
[--11(16 times)-88888888-77777777--------]
[--9 (16 times)-66666666-55555555--------]
[--9 (16 times)-66666666-55555555--------]

"If you're out of..."(x2)
[------------------------]
[------------------------]
[------------------------]
[--88888888-13(8 times)--]
[--66666666-13(8 times)--]
[--66666666-11(8 times)--]

Short lead solo
[-------------------12(bend)-----]
[-----------------14---------14--]
[--1313-1313-13-15---------------]
[--1111-1111---------------------]
[--------------------------------]
[--------------------------------]

Chorus 2 - "Oliver's Army..." (x2)
[--------------------------------]
[--------------------------------]
[--------------------------------]
[--11(8 times)-8888-6666---------]
[-- 9(8 times)-6666-4444---------]
[-- 9(8 times)-6666-4444---------]

"And I would rather be anywhere else..."               (x3)
[---------------------------------------------------------]
[---------------------------------------------------------]
[---------------------------------------------------------]
[--11(4 times)-10(4 times)-8888-6666-4444-3333-4444-6666--]
[-- 9(4 times)- 8(4 times)-6666-4444-2222-1111-2222-4444--]
[-- 9(4 times)- 8(4 times)-6666-4444-2222-1111-2222-4444--]

Outro - "Woah, oh, oh..."                        (x2)
[----------------------------------------------------]
[----------------------------------------------------]
[----------------------------------------------------]
[--11-11-11(3 times)(x2)-10-10-10(3 times)-66666666--]
[-- 9- 9- 9(3 times)(x2)- 8- 8- 8(3 times)-44444444--]
[-- 9- 9- 9(3 times)(x2)- 8- 8- 8(3 times)-44444444--]

Final Note - Hold!
[--------------]
[--------------]
[--------------]
[--11~~~~~~~~--]
[-- 9~~~~~~~~--]
[-- 9~~~~~~~~--]

End.
Добавлено: 17.09.2013
Другие материалы по этой песне:
  • Аккорды и текст

Страница создана 17.09.2013
http://primanota.ru/bayside/olivers-army-chords.htm
Привет, Гость.
Предлагаем пройти революционный курс по гитаре.
Подарок от PrimaNota.Ru, забирай!