PrimaNota.ru - самый крупный в мире бесплатный архив песенных текстов, аккордов, табулатур и нот


Bayside - Loveless Wrists - текст песни, таба, видео

Регистрация Запомнить меня
Войти через:  Facebook Google Twitter Vk Yandex Mail.ru

Bayside - Loveless Wrists - текст песни, таба, видео

Печатать
Просмотров: 156
Loveless Wrists by Bayside
This is the first song off of their split ep with Name Taken.
Rythm Guitar: (Anthony Raneri)

Intro (wait for lead to be on like the middle of his fourth cycle)
D------------------------|
A------------------------|
F------------------------|
C-2-222222-66666666------|
G-2-222222-66666666------|
D-0-000000-44444444------|

Verse:
D-----------------------------------------------|
A-----------------------------------------------|
F-2-222222222222-6-66-6-6-66-9-99-9-9-99-99-----|
C-2-222222222222-6-66-6-6-66-9-99-9-9-99-99-----|
G-0-000000000000-4-44-4-4-44-7-77-7-7-77-77-----|
D-----------------------------------------------|
    ............
D------------------------------------------------------------------------|
A------------------------------------------------------------------------|
F-2-222222222222-2-222-22-22-2222-6-66-6-6-66-9-99-9-9-99-99-22-222-2222-|
C-2-222222222222-2-222-22-22-2222-6-66-6-6-66-9-99-9-9-99-99-22-222-2222-|
G-0-000000000000-0-000-00-00-0000-4-44-4-4-44-7-77-7-7-77-77-00-000-0000-|
D------------------------------------------------------------------------|
    ............   ...    ..                                    ...

D-----------------|
A-----------------|
F-44-4444-44444---|
C-44-4444-44444---|
G-22-2222-22222---|
D-----------------|          .....
Chorus:
D-00-------------------------------|(X2)
A-00-------------------------------|
F-11------66-666-22-222-44-444-----|
C-2-2-222-66-666-22-222-44-444-----|
G-2-2-222—44-444-00-000-22-222-----|
D-0-0-000--------------------------|

Post chorus: (10 are tens)
D----------------------------------------------|(X2)
A----------------------------------------------|
F----------------------------------------------|
C-5555-7777-9999-12121212-5555-7777-9999-1010--|
G-3333-5555-7777-10101010-3333-5555-7777-8888--|
D----------------------------------------------|
  .... .... .... ........ .... .... .... ....

D-----------------------|
A-----------------------|
F-2-22/9-9-99\4-44-444--|
C-2-22/9-9-99\4-44-444--|
G-0-00/7-7-77\2-22-222--|
D-----------------------|

Bridge:
D------------------------------------------|
A------------------------------------------|
F-99-99---99-99-98-66-66---66-66-----------|
C-99-99---99-99-98-66-66---66-66-2222------|
G-77-77---77-77-76-44-44---44-44-2222------|
D--------------------------------0000------|
                                 ....

D-----------------------------------------|(x2)
A-----------------------------------------|
F--------------------66~-66~---66~-66~----|
C-22~-22~---22~-22~--66~-66~---66~-66~----|
G-22~-22~---22~-22~--44~-44~---44~-44~----|
D-00~-00~---00~-00~-----------------------|

D---------------|
A---------------|
F-4-4-22-22222--|
C-4-4-22-22222--|
G—2-2-00-00000--|
D---------------|
         .....
Chorus:
D-00-------------------------------|(X2)
A-00-------------------------------|
F-11------66-666-22-222-44-444-----|
C-2-2-222-66-666-22-222-44-444-----|
G-2-2-222—44-444-00-000-22-222-----|
D-0-0-000--------------------------|

Outro:
D--------------------------------------------|
A--------------------------------------------|
F--------------------------------------------|
C-2~-22-66666666----------7-8-7---7-8-5------|
G-2~-22-66666666-------5--------5------------|
D-0~-00-44444444-----------------------------|

D----0---------0-----------0------------0-------|
A----0---------0-----------0------------0-------|
F----1----6----2------4----1---666-99---2---4---|
C----2----6----2------4----2---666-99---2---4---|
G----2—4~-4—0~-0---2~-2----2—4-444-77-0-0---2---|
D—0~-0------------------0~-0--------------------|
                               ... ..

(faster part now…)
D-------------------------------------|(X2)
A-------------------------------------|
F---------6-66-6-6-44-4-444-22-22-2---|
C-2-2-222-6-66-6-6-44-4-444-22-22-2---|
G-2-2-222-4-44-4-4-22-2-222-00-00-0---|
D-0-0-000-----------------------------|
            ..        .
(End with…)
D----------|
A----------|
F----------|
C-66-66----|
G-66-66----|
D—44-44----|

Lead Guitar
Intro
D------------------------------------------------------------------|(x3)
A------------------------------------------------------------------|
F------------------------------------------------------------------|
C---------1010------------1010----------1010----------1010---------|
G------88------88-1010-88------88----88------88----88------88------|
D-1010----------------------------88------------66-----------------|
  .... .. .... .. .... .. .... .. .. .. .... .. .. .. .... ..

D-----------------------------------------------------------|
A-----------------------------------------------------------|
F-----------------------------------------------------------|
C-----------1010------------1010-----2-222222-66666666------|
G-------88-------88-1010-88------88--2-222222-66666666------|
D-1010-------------------------------0-000000-44444444------|
  ....  ..  .... .. .... .. .... ..

Verse:
D------------------------------------------------|
A------------------------------------------------|
F-2-222222222222-6-66-6-6-66----9-99-9-9-99-99---|
C-2-222222222222-6-66-6-6-66----9-99-9-9-99-99---|
G-0-000000000000-4-44-4-4-44-7--7-77-7-7-77-77---|
D-----------------------------0------------------|
    ............
D-----------------------------------------------------------------------------------------|
A-----------------------------------------------------------------------------------------|
F-2-222222222222-2-222-22-22-2222-6-66-6-6-66---9-99-9-9-99-99-22-222-2222----------------|
C-2-222222222222-2-222-22-22-2222-6-66-6-6-66---9-99-9-9-99-99-22-222-2222----------------|
G-0-000000000000-0-000-00-00-0000-4-44-4-4-44-7-7-77-7-7-77-77-00-000-0000----------------|
D----------------------------------------------0--------------------------    
                                                 ...

D-----------------|
A-----------------|
F-44-4444-44444---|
C-44-4444-44444---|
G-22-2222-22222---|
D-----------------|          .....

Chorus:
D-00-----------------------------|(X2)
A-00-----------------------------|
F-11------66-666-22-222-44-444---|
C-2-2-222-66-666-22-222-44-444---|
G-2-2-222—44-444-00-000-22-222---|
D-0-0-000------------------------|

Post Chorus: (start after one cycle of rhythm guitar)
D--------------7--4-------------------7--5h7------------|
A—9-9p5-5-7p5-5--5-5—5-9-9p5-5-7p5-5-5-5-----5~---4~----|
F-------------------------------------------------------|
C-------------------------------------------------------|
G-------------------------------------------------------|
D-------------------------------------------------------|

Bridge:
D---------------------------------------|
A---------------------------------------|
F-99-99---99-99-98-66-66---66-66--------|
C-99-99---99-99-98-66-66---66-66-2222---|
G-77-77---77-77-76-44-44---44-44-2222---|
D--------------------------------0000---|
                                 ....

D-----------------------------------------|(x2)
A-----------------------------------------|
F--------------------66~-66~---66~-66~----|
C-22~-22~---22~-22~--66~-66~---66~-66~----|
G-22~-22~---22~-22~--44~-44~---44~-44~----|
D-00~-00~---00~-00~-----------------------|

D------------------|
A------------------|
F---4-4-22-22222---|
C---4-4-22-22222---|
G—--2-2-00-00000---|
D------------------|

Chorus:
D-00------------------------------|X2)
A-00------------------------------|
F-11------66-666-22-222-44-444----|
C-2-2-222-66-666-22-222-44-444----|
G-2-2-222—44-444-00-000-22-222----|
D-0-0-000-------------------------|

Outro:
D--------------------------------------------------------|
A--------------------------------------------------------|
F-----------------------------12-13-12------12-13-15-----|
C-2~-22-66666666---------10------------10----------------|
G-2~-22-66666666-----------------------------------------|
D-0~-00-44444444-----------------------------------------|

Im not sure about this part down here\/\/\/
D-----------------------------------------------------------------|
A-----------------------------------------------------------------|
F-----/9—6—6---------------11-------------------------------------|
C--------------7~---9~---9—9—11b---7---9h11p9---------------------|
G----------------------------------------------11~---7~----9------|
D-----------------------------------------------------------------|

D----------------------------------------|(x2)
A----------------------------------------|
F---------/9-99999----6-6666666-22-22-2--|
C---2------x-xxxxx----x-xxxxxxx—22-22-2--|
G---2-----/7-77777----4-4444444—00-00-0--|
D---0------------------------------------|
(End with…)
D-----------|
A-----------|
F-----------|
C-66-66-----|
G-66-66-----|
D—44-44-----|
Добавлено: 30.07.2012
Другие материалы по этой песне:
  • Аккорды и текст

Страница создана 04.05.2012
http://primanota.ru/bayside/loveless-wrists-chords.htm
Привет, Гость.
Предлагаем пройти революционный курс по гитаре.
Подарок от PrimaNota.Ru, забирай!