PrimaNota.ru - самый крупный в мире бесплатный архив песенных текстов, аккордов, табулатур и нот


Bayside - Existing In A Crisis Evalyn - таба, видео

Регистрация Запомнить меня
Войти через:  Facebook Google Twitter Vk Yandex Mail.ru

Bayside - Existing In A Crisis Evalyn - таба, видео

Печатать
Просмотров: 103
Уроки эстрадного вокала в Санкт-Петербурге
Ok, here we go.  This is Drop D, I don't have the intro in here because i have zilch 
to do this, but this is 100% right, so yeah.

Verse

(I'm so tired of the stupid games you play...)
e|----------------------------------|
b|----------------------------------|
g|----5-----------5-----------------|
d|--2-5-5-------2-5-5-2-3-----------|
a|--2-3-5--(2x)-2-3-5-2-3-----------|
d|--2---5-------2---5-2-3-----------|

Chorus Part 1
(But I thought You changed...)

e|-----------------------|
b|-----------------------|
g|-----3---7-------------|
d|--1--3---7-------------|
a|--1--1---5-------------|
d|--1--------------------|

Chorus:
(Evalyn, I know you lied...)
e|--------------------------|
b|--------------------------|
g|-----3-----3---5----------|
d|--5--3--1--3-1-5----------|
a|--5--1--1--1-1-3----------|
d|--5-----1----1------------|

Verse 3:

e|--------------------------------------------------|
b|--------------------------------------------------|
g|----5-------------5-7-9-11-12---------------------|
d|--2-5-5-------2-5-5-7-9-11-12---3-----------------|
a|--2-3-5--(2x)-2-5-3-5-7-9--10---3-----------------|
d|--2---5-------2-5---------------3-----------------|
              (This is the slide for "Then you'd have to adhere to my demands, and 
a shallow grave as shallow as you are.)


Bridge:
(Sometimes content leads...)

e|-------------------------------------------------------|
b|-------------------------------------------------------|
g|-------------555--999--777--555--777-------------------|
d|--222---555--555--999--777--555--777-------------------|
a|--222---555--333--777--555--333--555-------------------|
d|--222---555--------------------------------------------|
    ...   ...  ...  ...  ...  ...  ...
Добавлено: 07.12.2013
Другие материалы по этой песне:
  • Аккорды и текст

Страница создана 06.11.2013
http://primanota.ru/bayside/existing-in-a-crisis-evalyn-chords.htm
Привет, Гость.
Предлагаем пройти революционный курс по гитаре.
Подарок от PrimaNota.Ru, забирай!