PrimaNota.ru - самый крупный в мире бесплатный архив песенных текстов, аккордов, табулатур и нот


Bayside - Bayside - таба, видео

Регистрация Запомнить меня
Войти через:  Facebook Google Twitter Vk Yandex Mail.ru

Bayside - Bayside - таба, видео

Печатать
Просмотров: 106
Bayside Album Tab
Anthony Raneri - Vocals/Rhythm Guitar
Jack O'Shea - Lead Guitar
Nick Ghanbarian - Bass
John "Beatz" Holohan - Drums
**NOTICE** I didnt do any of these tabs, i just put all the songs together.
I'm missing two of the songs because the tabs for them are crappy so i'll
update you with them as they get posted, anyway, heres the tabs:

Songs:
1) Hello Shitty
2) Devotion and Desire
3) Tortures of the Damned
4) They Looked Like Strong Hands
5) Montauk
6) Blame It on Bad Luck
7) We'll Be O.K
8) Existing In A Crisis (Evelyn)
9) Don't Call Me Peanut
10) Half a Life
11) Dear Tragedy *NO TAB YET*
12) A Long December *NO TAB YET*

-------------------
1) Hello Shitty
-------------------
Tuning: 1 whole step down (DGCFAD)

verse:
D|-----|------------------------------------------------------------------|
A|-----|------------------------------------------------------------------|
F|--4--|-----5--6-----7--6-----4----6--2--4-------------------------------|
C|--4--|--2--5--6--7--7--6--4--4----6--2--4-------------------------------|
G|--2--|--2--3--4--7--5--4--4--2----4--0--2-------------------------------|
D|-----|--0--------5--------2---------------------------------------------|

chorus:
D|-----------------|--------------------------------------------------------|
A|-----------------|--------------------------------------------------------|
F|--6--2-----4-----|-------5------------------------------------------------|
C|--6--2--2--4--X2-|--2----5------------------------------------------------|
G|--4--0--2--2-----|--2----3------------------------------------------------|
D|--------0--------|--0-----------------------------------------------------|

--------------------------
2) Devotion and Desire
--------------------------
/=slide up
=slide down
b=bend
r=release(from bend)
h=hammer on
p=pull off
.=palm mute
                             Lead Guitar
Drop D
Intro
e---------------------------------------------------------------|
b-----65--------------------------------------------------------|
g-------76-77777777----------77777777------------------66666666-|
d-75-------77777777-88888888-77777777-7777777788888888-66666666-|
a---87-----55555555-88888888-55555555-7777777788888888-44444444-|
D-------------------88888888----------7777777788888888----------|

Verse
e------------------------------------------------|
b------------------------------------------------|
g-7-77-77-777-------------7-77-------------6-666-|
d-7-77-77-777-8-88-88-888-7-77-------------6-666-|
a-5-55-55-555-8-88-88-888-5-55-77-777-8-88-4-444-|
D-------------8-88-88-888------77-777-8-88-------|

Pre-Chorus
e---------------------------------------|
b---------------------------------------|
g-77777777----------7777------66-66-666-|
d-77777777-88888888-7777-7777-66-66-666-|
a-55555555-88888888-5555-7777-44-44-444-|
D----------88888888------7777-----------|
  ........ ........ .... ....
Chorus
e------------------------------------------------------------------------|
b------------------------------------------------------------------------|
g-77777777-----------------------7-10-9-10-7-10-9-10--10-9-10-12-10-9-10-|
d-77777777-88888888-5555-7777-5-3--------------------8-------------------|
a-55555555-88888888-5555-7777-5-3----------------------------------------|
D----------88888888-5555-7777-5-3----------------------------------------|

e---------------------------------|
b---------------------------------|
g--10-9-10-12-10-9-7-6-7-9-7-9-10-|
d-8-------------------------------|
a---------------------------------|
D---------------------------------|

Solo
e-----------------------------------------------------------------------------|
b----13-----------------------------------------------------------------------|
g-12---12/14-12-10-9-10--9-----9-10--9----------------------------------------|
d----------------------12-10-12----12-10-12-----------------3-3-5b6r5-3-3-5---|
a------------------------------------------8-10-10b-8--3-3-5-5---------5------|
D-----------------------------------------------------------------------------|

e------5---10p0-8p0-6p0-5p0-3p0-6p0-5p0-3p0-8p0-6p0-10p0-8p0-12p0-10p0-12/13-|
b-------5--------------------------------------------------------------------|
g--------6-------------------------------------------------------------------|
d-7-8-7----------------------------------------------------------------------|
a----------------------------------------------------------------------------|
D----------------------------------------------------------------------------|

e-------------------------------------------------9-7-5-|
b--------------10-11-13-11-10---------------------------|
g-12b13r12-10----------------12-------------6-9-6-------|
d------------12----------------11b12r11--7-8-----7------|
a-------------------------------------------------------|
D-------------------------------------------------------|

Bridge
e-------------3h5------------6-5-3------------6p5----------------|
b----------------------------------------------------------------|
g-7-7777777777---6-6666666666--------------------------------6h7-|
d-7-7777777777---6-6666666666-----8-8888888888---7-7777777777----|
a-5-5555555555---4-4444444444-----8-8888888888---7-7777777777----|
D---------------------------------8-8888888888---7-7777777777----|
    ..........     ..........       ..........     ..........
e--------------------------------------|
b--------------------------------------|
g--77777777-66666666-------------------|
d--77777777-66666666-88888888-77777777-| x2
a--55555555-44444444-88888888-77777777-|
D--------------------88888888-77777777-|

play beginning of intro

Outro
e-------------|
b-------------|
g-------------|
d-5-3-0-0-0-0-| a few times
a-5-3-0-0-0-0-|
D-5-3-0-0-0-0-|

                           Rhythm Guitar
Intro
e---------------------------------------------------------------|
b-----65--------------------------------------------------------|
g-------76-77777777----------77777777------------------66666666-|
d-75-------77777777-88888888-77777777-7777777788888888-66666666-|
a---87-----55555555-88888888-55555555-7777777788888888-44444444-|
D-------------------88888888----------7777777788888888----------|

Verse
e------------------------------------------------|
b------------------------------------------------|
g-7-77-77-777-------------7-77-------------6-666-|
d-7-77-77-777-8-88-88-888-7-77-------------6-666-|
a-5-55-55-555-8-88-88-888-5-55-77-777-8-88-4-444-|
D-------------8-88-88-888------77-777-8-88-------|

Pre-Chorus
e---------------------------------------|
b---------------------------------------|
g-77777777----------7777------66-66-666-|
d-77777777-88888888-7777-7777-66-66-666-|
a-55555555-88888888-5555-7777-44-44-444-|
D----------88888888------7777-----------|
  ........ ........ .... ....
Chorus
e-----------------------------------------------------------------|
b-----------------------------------------------------------------|
g-77777777------------------------77777777------------------------|
d-77777777-88888888-5555-7777-5-3-77777777-88888888-5555-7777-5-3-|
a-55555555-88888888-5555-7777-5-3-55555555-88888888-5555-7777-5-3-|
D----------88888888-5555-7777-5-3----------88888888-5555-7777-5-3-|

Solo
e---------------------------------------|
b---------------------------------------|
g--77777777----------7777------66666666-|
d--77777777-88888888-7777-7777-66666666-| x2
a--55555555-88888888-5555-7777-44444444-|
D-----------88888888------7777----------|

Bridge
e-----------------------------------------------------|
b-----------------------------------------------------|
g-7-7777777777-6-6666666666---------------------------|
d-7-7777777777-6-6666666666-8-8888888888-7-7777777777-|
a-5-5555555555-4-4444444444-8-8888888888-7-7777777777-|
D---------------------------8-8888888888-7-7777777777-|
    ..........   ..........   ..........   ..........
e--------------------------------------|
b--------------------------------------|
g--77777777-66666666-------------------|
d--77777777-66666666-88888888-77777777-| x2
a--55555555-44444444-88888888-77777777-|
D--------------------88888888-77777777-|

play beginning of intro

Outro
e-------------|
b-------------|
g-------------|
d-5-3-0-0-0-0-| a few times
a-5-3-0-0-0-0-|
D-5-3-0-0-0-0-|

----------------------------
3) Tortures of the Damned
----------------------------
Drop D tuning

Rhythm Guitar

---------------------------------------------------------|
---------------------------------------------------------|
--4-~------4-~-------------------------------------------|
--4-~------4-~-------------------------------------------|
--2-~------2-~-------------------------------------------|
---------------------------------------------------------|


---------------------------------------------------------|X2
---------------------------------------------------------|
-4-4-4-4-------------------------------------------------|
-4-4-4-4--5-5-5-5--2-2-2-2--4-4-4-4----------------------|
-2-2-2-2--5-5-5-5--2-2-2-2--4-4-4-4----------------------|
----------5-5-5-5--2-2-2-2--4-4-4-4----------------------|

                           ...I HATE MYSELF...(2ND TIME)

[PM]
---------------------------------------------------------|X2
---------------------------------------------------------|
-4-X16---------------------------------------------------|
-4--------5-X16----2-X16--4-X16--------------------------|
-2--------5--------2------4------------------------------|
----------5--------2------4------------------------------|
 .        .        .      .

...IV MADE MISTAKES...
------------------------------------------------------------|
------------------------------------------------------------|
----------4-4-4-4--6-~--7-~---------------------------------|
-~-5-X10--4-4-4-4--6-~--7-~--5-X8/7-X8----------------------|
-~-5------2-2-2-2--4-~--5-~--5---/7-------------------------|
-~-5-------------------------5---/7-------------------------|
   .(GET LOUDER)          (PLAY FAST)


...THESE THINGS IV FAILED BEFOR...
----------------------------------------------------------|
----------------------------------------------------------|
--4-X8---7-X8---------------------------------------------|
--4------7-----5-X8---7-X8--------------------------------|
--2------5-----5------7-----------------------------------|
---------------5------7-----------------------------------|

...IT JUST HURTS TO BE A MAN...
--------------------------------------------------------|
--------------------------------------------------------|
--4-X8--------------------------------------------------|
--4-----4-X8--5-X8--2-X8--------------------------------|
--2-----4-----5-----2-----------------------------------|
--------4-----5-----2-----------------------------------|


---------------------------------------------------------|X2
---------------------------------------------------------|
-4-4-4-4-------------------------------------------------|
-4-4-4-4--5-5-5-5/-2-2-2-2/-4-4-4-4----------------------|
-2-2-2-2--5-5-5-5/-2-2-2-2/-4-4-4-4----------------------|
----------5-5-5-5/-2-2-2-2/-4-4-4-4----------------------|
 . . .    . . .    . . .    . . .   "IF I ONLY HAD AN AX"(2ND TIME)


---------------------------------------------------------|X2
---------------------------------------------------------|
-4-X16---------------------------------------------------|
-4--------5-X16----2-X16--4-X16--------------------------|
-2--------5--------2------4------------------------------|
----------5--------2------4------------------------------|
 .        .        .      .


...IV MADE MISTAKES...
------------------------------------------------------------|
------------------------------------------------------------|
----------4-4-4-4--6-~--7-~---------------------------------|
-~-5-X10--4-4-4-4--6-~--7-~--5-X8/7-X8----------------------|
-~-5------2-2-2-2--4-~--5-~--5---/7-------------------------|
-~-5-------------------------5---/7-------------------------|
   .(GET LOUDER)          (PLAY FAST)


...THESE THINGS IV FAILED BEFOR...
----------------------------------------------------------|
----------------------------------------------------------|
--4-X8---7-X8---------------------------------------------|
--4------7-----5-X8---7-X8--------------------------------|
--2------5-----5------7-----------------------------------|
---------------5------7-----------------------------------|

...IT JUST HURTS TO BE A MAN...
--------------------------------------------------------|
--------------------------------------------------------|
--4-X8--------------------------------------------------|
--4-----4-X8--5-X8--2-X6--------------------------------|
--2-----4-----5-----2-----------------------------------|
--------4-----5-----2-----------------------------------|
...THROUGH THE TORTURES OF THE DAMNED...

--------------------------------------------------------|
--------------------------------------------------------|
--------6--11-------------------------------------------|
--4--8--6--11-------------------------------------------|
--4--8--4--9--------------------------------------------|
--4--8--------------------------------------------------|


---------------------------------------------------------|X3
---------------------------------------------------------|
--4-4--6-7-----------------------------------------------|
--4-4--6-7---4-~---5-X8/-4-X8----------------------------|
--2-2--4-5---4-~---5---/-4-------------------------------|
-------------4-~---5---/-4-------------------------------|
            ...IM ON THE TRACKS...

--------------------------------------------------------|
--------------------------------------------------------|
--4-4--6-7----------------------------------------------|
--4-4--6-7---4-~---5-X8/-4-4-4--X-X--X------------------|
--2-2--4-5---4-~---5---/-4-4-4--X-X--X------------------|
-------------4-~---5---/-4-4-4--X-X--X------------------|


--------------------------------------------------------| X2
--------------------------------------------------------|
--4-~-4-------------------------------------------------|
--4-~-4----5-~---5-7-~-7---7--4-~-----------------------|
--2-~-2----5-~---5-7-~-7---7--4-~-----------------------|
-----------5-~---5-7-~-7---7--4-~-----------------------|

...IV MADE MISTAKES...
------------------------------------------------------------|
------------------------------------------------------------|
----------4-4-4-4--6-~--7-~---------------------------------|
-~-5-X10--4-4-4-4--6-~--7-~--5-X8/7-X8----------------------|
-~-5------2-2-2-2--4-~--5-~--5---/7-------------------------|
-~-5-------------------------5---/7-------------------------|
   .(GET LOUDER)          (PLAY FAST)

...THESE THINGS IV FAILED BEFOR...
----------------------------------------------------------|
----------------------------------------------------------|
--4-X8---7-X8---------------------------------------------|
--4------7-----5-X8---7-X8--------------------------------|
--2------5-----5------7-----------------------------------|
---------------5------7-----------------------------------|

...IT JUST HURTS TO BE A MAN...
--------------------------------------------------------|
--------------------------------------------------------|
--4-X8--------------------------------------------------|
--4-----4-X8--5-X8--2-X8--------------------------------|
--2-----4-----5-----2-----------------------------------|
--------4-----5-----2-----------------------------------|
                    (START TO P.M.)
..IV MADE MISTAKES...(2ND TIME)
--------------------------------------------------------|
--------------------------------------------------------|
--6-X4---8-~--7-~---------------------------------------|
--6------8-~--7-~---7-x8/--9--x8------------------------|
--4------6-~--9-~---7---/--9----------------------------|
--------------------7---/--9----------------------------|

...these things iv failed befor...
--------------------------------------------------------|
--------------------------------------------------------|
--6-x8--7-x8--------------------------------------------|
--6-----7---7-x8--9-x8----------------------------------|
--4-----9---7-----9-------------------------------------|
------------7-----9-------------------------------------|

...it just hurts to be a man...
--------------------------------------------------------|
--------------------------------------------------------|
--6-x8--------------------------------------------------|
--6----6-x8-7-x8-4-x12----------------------------------|
--4----6----7----4--------------------------------------|
-------6----7----4--------------------------------------|


---------------------------------------------------------|X4
---------------------------------------------------------|
-6-6-6-6-------------------------------------------------|
-6-6-6-6--7-7-7-7--4-4-4-4--6-6-6-6----------------------|
-4-4-4-4--7-7-7-7--4-4-4-4--6-6-6-6----------------------|
----------7-7-7-7--4-4-4-4--6-6-6-6----------------------|
    ...OF THE DAMNED...
--------------------------------------------------------|
--------------------------------------------------------|
-6-----6-~----------------------------------------------|
-6--6--6-~----------------------------------------------|
-4--6--4-~----------------------------------------------|
----6---------------------------------------------------|


4) They Looked Like Strong Hands
Tuning: 1 whole step down (DGCFAD)

intro:
D|------------------------------------------------------------------------|
A|------------------------------------------------------------------------|
F|------------8^8--9-8-6--------------------------------------------------|
C|------6---6------------9-7-6------------------6h7p6---6-----------------|
G|----7---7-----------------------7-9^9-7--9-7--------9---7---------------|
D|--9---------------------------9-----------------------------------------|

D|------------------------------------------------------------------------|
A|------------------------------------------------------------------------|
F|------------8^8--9-8-6--------------------------------------------------|
C|------6---6------------9-7-6--------------------------------------------|
G|----7---7-----------------------7-9^9-7--9-7--9^9--7h9p7----------------|
D|--9---------------------------9-----------------------------------------|

verse:
D|------------------------------------------------------------------------|
A|-----5--------5---------------------------------------------------------|
F|--6--4-----2--4---------------------------------------------------------|
C|--6--2--4--2--2---------------------------------------------------------|
G|--4-----4--0------------------------------------------------------------|
D|--------2---------------------------------------------------------------|

chorus:
D|------------------------------------------------------------------------|
A|-----------5------------------------------------------------------------|
F|--2--5--6--4--2--4------------------------------------------------------|
C|--2--5--6--2--2--4--2---------------------------------------------------|
G|--0--3--4-----0--2--2---------------------------------------------------|
D|--------------------0---------------------------------------------------|

bridge:
D|----------------------------------------------------|-------------------|
A|----------------------------------------------------|-------------------|
F|---------------------------------------------4h6p4--|-----------------4-|
C|-------6-6-6-------7-6-4---------6-6-6-------------6|--6---7-6-4----7-4-|
G|-4-4-4-------4-4-4-------7-4-4-4-------6-6-6--------|4---4-------7--7-2-|
D|----------------------------------------------------|---------------5---|

D|----------------------------|-------------------------------------------|
A|----------------------------|-------------------------------------------|
F|-----------9-8-4-6--4-6-4---|-------9-----------------------------------|
C|--2--6--2--9-8-4-6--4-6-4-2-|-6--9--9-----------------------------------|
G|--2--6--2--7-6-2-4--2-4-2-2-|-6--9--7-----------------------------------|
D|--0--4--0-----------------0-|-4--7--------------------------------------|
NOTE : play second part only on the first time

| ^  bend
| /  slide up
| \  slide down
| h  hammer-on
| p  pull-off
| ~  vibrato
| +  harmonic
| x  Mute note

-------------
5) Montauk
-------------
Tuning: Drop D

[intro]
(guitar 1)
e|------------------------------------------------------------|
b|-X-X-3-3-X-3-3-X-X-3-3-3----------------------------------3-|
g|-X-X-4-4-X-4-4-X-X-4-4-4-7--7-7--7-7--11--11--11-11-11-11-4-|
d|-X-X-4-4-X-4-4-X-X-4-4-4-7--7-7--7-7--11--11--11-11-11-11-4-|
a|-X-X-2-2-X-2-2-X-X-2-2-2-5--5-5--5-5---9---9---9--9--9--9-2-|
D|------------------------------------------------------------| [x4]
(guitar 2)
{comes in third cycle}
e|---------------------------------------------------------------|
b|---------------------------------------------------------------|
g|-/6-----6-5-8-6-5-6-5-8-6-5-6-5----6-5-6-5-8-6-5-6-5-6-5-6-5---|
d|-----------8---------8---------8----------8---------8-------8--|
a|---------------------------------------------------------------|
D|---------------------------------------------------------------|

e|------------------------------------------------------------|
b|------------------------------------------------------------|
g|-6-5-8-6-5-6-5-8-6-5-6-5----6-5-6-5-8-6-5-6-5-6-5-6-5-------|
d|----8---------8---------8----------8---------8-------8-6-4--|
a|------------------------------------------------------------|
D|------------------------------------------------------------|

[verse]

e|-------------------------------------------------------------------------|
b|-------------------------------------------------------------------------|
g|-7-7-7-7-7-7-7-7-7-7-7-7-X-9--9-9-9-X-X-9-X-8-X-11--11-11-11-11-11-11-11-|
d|-5-5-5-5-5-5-5-5-7-7-7-7-X-7--7-7-7-X-X-7-X-7-X--9---9--9--9--9--9--9--9-|
a|-5-5-5-5-5-5-5-5-5-5-5-5-X-7--7-7-7-X-X-7-X-7-X--9---9--9--9--9--9--9--9-|
D|-5-5-5-5-5-5-5-5---------X-7--7-7-7-X-X-7-X-7-X--9---9--9--9--9--9--9--9-|

e|-----------------------------|
b|-----------------------------|
g|-X-4-X---X-6--6-6-6-6-6-6-6--|
d|-X-2-X-0-X-4--4-4-4-4-4-4-4--|
a|-X-2-X-0-X-4--4-4-4-4-4-4-4--|
D|-X-2-X-0-X-4--4-4-4-4-4-4-4--| [x2]

[transition]

e|-------------------------------|
b|-------------------------------|
g|-7-7-7-7-7-7-7-7-7--7--7--7--7-|
d|-7-7-7-7-7-7-7-7-7--7--7--7--7-|
a|-5-5-5-5-5-5-5-5-5--5--5--5--5-|
D|-------------------------------|

[Chorus]

e|---------------------------------------------------------------------|
b|-3-3-3--3-3-3--3-3-3--3-3-3------------------------------------------|
g|-4-4-4--4-4-4--4-4-4--4-4-4----------------------------9-9-9--9-9-9--|
d|-4-4-4--4-4-4--4-4-4--4-4-4-2-2-2--2-2-2--2-2-2--2-2-2-7-7-7--7-7-7--|
a|-2-2-2--2-2-2--2-2-2--2-2-2-2-2-2--2-2-2--2-2-2--2-2-2-7-7-7--7-7-7--|
D|----------------------------2-2-2--2-2-2--2-2-2--2-2-2-7-7-7--7-7-7--|

e|----------------------------|
b|----------------------------|
g|-9-9-9--9-9-9-7-6-7-9-7-6-4-|
d|-7-7-7--7-7-7-X-X-X-X-X-X-X-|
a|-7-7-7--7-7-7-5-4-5-7-5-4-2-|
D|-7-7-7--7-7-7---------------| [x2]

[Verse]
e|-------------------------------------------------------------------------|
b|-------------------------------------------------------------------------|
g|-7-7-7-7-7-7-7-7-7-7-7-7-X-9--9-9-9-X-X-9-X-8-X-11--11-11-11-11-11-11-11-|
d|-5-5-5-5-5-5-5-5-7-7-7-7-X-7--7-7-7-X-X-7-X-7-X--9---9--9--9--9--9--9--9-|
a|-5-5-5-5-5-5-5-5-5-5-5-5-X-7--7-7-7-X-X-7-X-7-X--9---9--9--9--9--9--9--9-|
D|-5-5-5-5-5-5-5-5---------X-7--7-7-7-X-X-7-X-7-X--9---9--9--9--9--9--9--9-|

e|-----------------------------|
b|-----------------------------|
g|-X-4-X---X-6--6-6-6-6-6-6-6--|
d|-X-2-X-0-X-4--4-4-4-4-4-4-4--|
a|-X-2-X-0-X-4--4-4-4-4-4-4-4--|
D|-X-2-X-0-X-4--4-4-4-4-4-4-4--| [x2]
[Chorus]
e|---------------------------------------------------------------------|
b|-3-3-3--3-3-3--3-3-3--3-3-3------------------------------------------|
g|-4-4-4--4-4-4--4-4-4--4-4-4----------------------------9-9-9--9-9-9--|
d|-4-4-4--4-4-4--4-4-4--4-4-4-2-2-2--2-2-2--2-2-2--2-2-2-7-7-7--7-7-7--|
a|-2-2-2--2-2-2--2-2-2--2-2-2-2-2-2--2-2-2--2-2-2--2-2-2-7-7-7--7-7-7--|
D|----------------------------2-2-2--2-2-2--2-2-2--2-2-2-7-7-7--7-7-7--|

e|--------------------|
b|--------------------|
g|-9-9-9--9-9-9-7-6-3-|
d|-7-7-7--7-7-7-X-X-X-|
a|-7-7-7--7-7-7-5-4-1-|
D|-7-7-7--7-7-7-------|

[Interlude]
(guitar 1)
e|-------------------------------------------------------|
b|-14----14----14----14----14-12----12----12----12----12-|
g|---13----13----13----13-------13----13----13----13-----|
d|-----11----11----11----11-------14----14----14----14---|
a|-------------------------------------------------------|
D|-------------------------------------------------------|

e|-------------------------------------------------|
b|-10----10----10----10----10-9----9----9----9-----|
g|---11----11----11----11------11---11---11---11---|
d|-----12----12----12----12------10---10---10---10-|
a|-------------------------------------------------|
D|-------------------------------------------------| [x2]

(guitar 2)
{on second cycle come in with this}

   PM........................
e|---------------------------------5---------5----------|
b|----------------------------7-5---7-5-7-5---7-5-7-5---|
g|--5-5-7-5--4----------5-7-5----7---------7---------7--|
d|-7-7---------7-5-4-5-7--------------------------------|
a|------------------------------------------------------|
D|------------------------------------------------------|

   PM...    . . .   .   . .  .. ............
e|------------------------------------------------------|
b|-------5-3-3---5-3--3-------2-1-1-2-4-2-1-1h2p1---2h4-|
g|-7-5-3----5-5-3---5---5-3------2---------2-----3p2----|
d|--------------------------/5--------------------------|
a|------------------------------------------------------|
D|------------------------------------------------------|

[Solo]
(guitar 2)
        tremolo pick here .                     pinch harmonic .     
e|------------10--10-12-12b---10-12-12b-10----------------------------------|
b|----7/12--12--12------------------------12-12-----------------------------|
g|---7------------------------------------------9b-7-------7-9-9b-7---------|
d|-/9------------------------------------------------9-7-9----------9-7-9-7-|
a|--------------------------------------------------------------------------|
D|--------------------------------------------------------------------------|
 Now the fast part
e|----------------------------------------------------|
b|-----------------------12--14--15--14--12--10--10---|
g|-------------11--/11-11--11--11--11--11--11--11--11-|
d|-----11---11----------------------------------------|
a|-7-9----9-------------------------------------------|
D|----------------------------------------------------|

e|------------------------------------------------------------------------|
b|-------15--17--19--17--15--12--12---12-14-15-14-15-17b-17-15-14-12------|
g|-/14-14--14--14--14--14--14--14--14-------------------------------15-11-|
d|------------------------------------------------------------------------|
a|------------------------------------------------------------------------|
D|------------------------------------------------------------------------|

e|----14---14---14---14--------|
b|-17b--17b--17b--17b--17b-17b-|
g|-----------------------------|
d|-----------------------------|
a|-----------------------------|
D|-----------------------------|

(guitar one){back-up for solo}
e|----------------------------------------------------------------------|
b|-14-14-14--14-14-14--14-14-14--14-14-14--12-12-12--12-12-12--12-12-12-|
g|-13-13-13--13-13-13--13-13-13--13-13-13--13-13-13--13-13-13--13-13-13-|
d|-11-11-11--11-11-11--11-11-11--11-11-11--14-14-14--14-14-14--14-14-14-|
a|----------------------------------------------------------------------|
D|----------------------------------------------------------------------|

e|----------------------------------------------------------------------|
b|-12-12-12--10-10-10--10-10-10--10-10-10--10-10-10---9--9--9---9--9--9-|
g|-13-13-13--11-11-11--11-11-11--11-11-11--11-11-11--11-11-11--11-11-11-|
d|-14-14-14--12-12-12--12-12-12--12-12-12--12-12-12--10-10-10--10-10-10-|
a|----------------------------------------------------------------------|
D|----------------------------------------------------------------------|

e|---------------------|      e|---------------|
b|--9--9--9---9--9--9--|      b|---------------|
g|-11-11-11--11-11-11--|      g|---------------|
d|-10-10-10--10-10-10--|      d|-2--2--2--2--2-|
a|---------------------|      a|-2--2--2--2--2-|
D|---------------------| [x2] D|-2--2--2--2--2-|

[Transition]

e|------------------------------------------------------------------------------|
b|------------------------------------------------------------------------------|
g|-4-4-4/6/7\6\4------7---7-6-7-9-7-6-4--4------7---7-6-3--3-3--3-3--3-3--3-3-3-|
d|-4-4-X/X/X\X\x--2---9---X-X-X-X-X-X-X--4--2---9---X-X-X--3-3--3-3--3-3--3-3-3-|
a|-2-2-2/4/5\4\2--2---9---5-4-5-7-5-4-2--2--2---9---5-4-1--1-1--1-1--1-1--1-1-1-|
D|----------------2---9---------------------2---9-------------------------------|

[last Chorus]

e|---------------------------------------------------------------------|
b|-3-3-3--3-3-3--3-3-3--3-3-3------------------------------------------|
g|-4-4-4--4-4-4--4-4-4--4-4-4----------------------------9-9-9--9-9-9--|
d|-4-4-4--4-4-4--4-4-4--4-4-4-2-2-2--2-2-2--2-2-2--2-2-2-7-7-7--7-7-7--|
a|-2-2-2--2-2-2--2-2-2--2-2-2-2-2-2--2-2-2--2-2-2--2-2-2-7-7-7--7-7-7--|
D|----------------------------2-2-2--2-2-2--2-2-2--2-2-2-7-7-7--7-7-7--|

e|----------------------------|
b|----------------------------|
g|-9-9-9--9-9-9-7-6-7-9-7-6-4-|
d|-7-7-7--7-7-7-X-X-X-X-X-X-X-|
a|-7-7-7--7-7-7-5-4-5-7-5-4-2-|
D|-7-7-7--7-7-7---------------|

e|---------------------------------------------------------------------|
b|-3-3-3--3-3-3--3-3-3--3-3-3------------------------------------------|
g|-4-4-4--4-4-4--4-4-4--4-4-4----------------------------9-9-9--9-9-9--|
d|-4-4-4--4-4-4--4-4-4--4-4-4-2-2-2--2-2-2--2-2-2--2-2-2-7-7-7--7-7-7--|
a|-2-2-2--2-2-2--2-2-2--2-2-2-2-2-2--2-2-2--2-2-2--2-2-2-7-7-7--7-7-7--|
D|----------------------------2-2-2--2-2-2--2-2-2--2-2-2-7-7-7--7-7-7--|
                               .slide up the neck.
e|--------------------------------|
b|--------------------------------|
g|-9-9-9--9-9-9--7-6-4-3----4--4\-|
d|-7-7-7--7-7-7--X-X-X-X----4--4\-|
a|-7-7-7--7-7-7--5-4-2-1----2--2\-|
D|-7-7-7--7-7-7-------------------|

-------------------------------
6) Blame It on Bad Luck Luck
-------------------------------
Standard Tuning

Intro (clean)

e:2-----------|-------------|---------------|-----------|
H:x-----------|-------------|---------------|-----------|
G:4-----------|-------------|---------------|-----------|  
D:4-----------|-------------|---------------|-----------|
A:2-----------|-------------|---------------|-----------|
E:------------|-------------|---------------|-----------|
Pound my knuckles hard against the floor

e:------------|-------------|---------------|2-----------|
H:------------|-------------|---------------|-3----------|
G:------------|-------------|---------------|--4---------|  x2
D:------------|-------------|---------------|------------|
A:------------|-------------|---------------|------------|
E:------------|-------------|---------------|------------|
With my head against the wall but I did this to my.....


e:2-----------|-------------|---------------|-----------|
H:x-----------|-------------|---------------|-----------|
G:4-----------|-------------|---------------|-----------|  x2
D:4-----------|-------------|---------------|-----------|
A:2-----------|-------------|---------------|-----------|
E:------------|-------------|---------------|-----------|
Assume it's just not worth getting back up

Play this before the intro

e:------------|-------------|---------------|-----------|
H:------------|-------------|---------------|-----------|
G:------------|4-4-4-4------|---------------|-----------|
D:4-4-4-4-----|4-4-4-4------|---------------|-----------|
A:2-2-2-2-----|2-2-2-4------|---------------|-----------|
E:------------|-------------|---------------|-----------|
pm- - - -
Verse:

Both guitars play this:

e:------------|-------------|---------------|-----------|
H:------------|-------------|---------------|-----------|
G:4-4-4-4-----|4-4-4-4------|---------------|-----------|
D:4-4-4-4-----|4-4-4-4------|2-2-2-2--------|4-4-4-4----|x 4
A:2-2-2-2-----|2-2-2-4------|2-2-2-2--------|4-4-4-4----|
E:------------|-------------|0-0-0-0--------|2-2-2-2----|

You can play this for the clear eyes part:
e:------------|-------------|------|
H:------------|-------------|------|
G:------------|-------------|------|
D:-4-4-4-6-7-6-9-119-9-9-9-4-4-4-4-|
A:-x-x-x-x-x-x-x-x-x-x-x-x-x-x-x-x-|
E:-2-2-2-4-5-4-7-9-7-7-7-7-2-2-2-2-|

Chorus:
e:------------|----------------|---------------|------------|
H:------------|----------------|---------------|------------|
G:------------|----------------|---------------|------------|
D:444444444444|2222------------|---------------|------------|
A:222222222222|0000555555555555|444422222222222|555544444444|x2
E:------------|----333333333333|222200000000000|333322222222|

e:------------|
H:------------|
G:------------|
D:77777777----|
A:55555555----|

or

e:------------|----------------|----------------|------------|------------|
H:------------|----------------|----------------|------------|------------|
G:444444444444|6666777777777777|9999111111111111|777711111111|77777777----|
D:xxxxxxxxxxxx|xxxxxxxxxxxxxxxx|xxxxxxxxxxxxxxxx|xxxxxxxxxxxx|xxxxxxxx----|
A:222222222222|4444555555555555|7777999999999999|555599999999|55555555----|
E:------------|----------------|----------------|------------|------------|

Play this after the chorus

e:------------|----------------|---------------|------------|
H:------------|----------------|---------------|------------|
G:---4-2------|----------------|---------------|------------|
D:-------4h5--|5-4-2-0---------|--2---4--------|------------|x2
A:2-----------|--------2-------|----2----------|----5-2-----|
E:------------|----------------|0--------------|2--------5--|

Verse:

e:------------|-------------|---------------|-----------|
H:------------|-------------|---------------|-----------|
G:4-4-4-4-----|4-4-4-4------|---------------|-----------|
D:4-4-4-4-----|4-4-4-4------|2-2-2-2--------|4-4-4-4----|x 4
A:2-2-2-2-----|2-2-2-4------|2-2-2-2--------|4-4-4-4----|
E:------------|-------------|0-0-0-0--------|2-2-2-2----|

e:------------|----------------|---------------|------------|
H:------------|----------------|---------------|------------|
G:------------|----------------|---------------|------------|
D:444444444444|2222------------|---------------|------------|x2
A:222222222222|0000555555555555|444422222222222|555544444444|
E:------------|----333333333333|222200000000000|333322222222|

e:------------|
H:------------|
G:------------|
D:77777777----|
A:55555555----|

or

e:------------|----------------|----------------|------------|------------|
H:------------|----------------|----------------|------------|------------|
G:444444444444|6666777777777777|9999111111111111|777711111111|77777777----|
D:xxxxxxxxxxxx|xxxxxxxxxxxxxxxx|xxxxxxxxxxxxxxxx|xxxxxxxxxxxx|xxxxxxxx----|
A:222222222222|4444555555555555|7777999999999999|555599999999|55555555----|
E:------------|----------------|----------------|------------|------------|

Then play

e:------------|
H:------------|
G:------------|
D:5-7-7-8-----|
A:3-5-5-6-----|
pm  x x x

Interlude:
e:---------------------------------------------------------------|
H:---------------------------------------------------------------|
G:-----------------------------------11------11------11------11--|
D:---4-------4-------4---4---8---8-9---9---9---9---9---9---9---9-|  x2
A:-5---5---5---5---5---5---9---9---------------------------------|
E:---------------------------------------------------------------|

Bridge:
e|----------------------------------------|
B|----------------------------------------|
G|----------------------------------------|
D|-----------7-7-7-7-------------4-4-2-2--|
A|-5-5-5-5---5-5-5-5---4-4-4-4---2-2-0-0--|
E|-3-3-3-3-------------2-2-2-2------------|
                                           x2
e|----------------------------------------|
B|----------------------------------------|
G|----------------------------------------|
D|-----------7-7-7-7----------------------|
A|-5-5-5-5---5-5-5-5---4-4-4-4-4-4-4-4----|
E|-3-3-3-3-------------2-2-2-2-2-2-2-2----|

or

e:---------------------------|
H:---------------------------|
G:---------------------------|   x2
D:---------------------------|
A:-5---5---4---2-7-5---5---4-|
E:-3---5---2---2-5-3---5---2-|

then for the last one play

e|--------------------------------|
B|--------------------------------|
G|--------------------------------|
D|--------------------------------|
A|-5---7----4---9-----5---7-7-8---|
E|-3---5----2---7-----3---5-5-6---|

or

e:-----------------|
H:-----------------|
G:-----------------|  x2
D:-----------------|
A:-5---7---8---9---|
E:-3---5---6---7---|

Chorus:
e:------------|----------------|---------------|------------|
H:------------|----------------|---------------|------------|
G:------------|----------------|---------------|------------|
D:444444444444|2222------------|---------------|------------|
A:222222222222|0000555555555555|444422222222222|555544444444|x2
E:------------|----333333333333|222200000000000|333322222222|

e:------------|
H:------------|
G:------------|
D:77777777----|
A:55555555----|

or

e:------------|----------------|----------------|------------|------------|
H:------------|----------------|----------------|------------|------------|
G:444444444444|6666777777777777|9999111111111111|777711111111|77777777----|
D:xxxxxxxxxxxx|xxxxxxxxxxxxxxxx|xxxxxxxxxxxxxxxx|xxxxxxxxxxxx|xxxxxxxx----|
A:222222222222|4444555555555555|7777999999999999|555599999999|55555555----|
E:------------|----------------|----------------|------------|------------|

Then slide down....

------------------
7) We'll Be O.K.
------------------
Drop-D Tuning

Intro                                       x4
E|--------------------------------------------|
B|--------------------------------------------|
G|--------------------------------------------|
D|----------------------------2-2-2-2-2-2-2-2-|
A|----------9-10-9-12-10-9-10-2-2-2-2-2-2-2-2-|
D|-9b10r9-5-------------------2-2-2-2-2-2-2-2-|


E|-----------------------------------|
B|-----------------------------------|
G|-----------------------------------|
D|-9b10r9-7-9b10r9-7-9-9b10r9-7------|
A|------------------------------6----|
D|-----------------------------------|


E|-----------------------------------------------|
B|-----------------------------------------------|
G|-----------------------------------------------|
D|55-555-555-555-522-222-222-222-255-555-555-559-|
A|55-555-555-555-522-222-222-222-255-555-555-559-|
D|55-555-555-555-522-222-222-222-255-555-555-559-|


E|-----------------------------------------------------|
B|-----------------------------------------------------|
G|-----------------------------------------------------|
D|-222-222-222-222-255-555-555-555-522-222-222-222-255-|
A|-222-222-222-222-255-555-555-555-522-222-222-222-255-|
D|-222-222-222-222-255-555-555-555-522-222-222-222-255-|


E|--------------------------------|
B|--------------------------------|
G|--------------------------------|
D|-555-555-559-22-222-222-222-222-|
A|-555-555-559-22-222-222-222-222-|
D|-555-555-559-22-222-222-222-222-|


E|-----------------------------------|
B|-----------------------------------|
G|-----------------------------------|
D|-9b10r9-7-9b10r9-7-9b10r9-7-5------|
A|------------------------------6/10-|
D|-----------------------------------|

Chorus
E|--------------------------------|
B|--------------------------------|
G|--------------------------------|
D|-x-2-2-x-0-0-5-5-5-5-7-7-7-5----|
A|-x-2-2-x-0-0-5-5-5--------------|
D|-x-2-2-x-0-0-5-5-5--------------|


E|-----------------------------------|
B|-----------------------------------|
G|-------x-5-5-----------------------|
D|-x-2-2-x-5-5-5-5-5-5---------------|
A|-x-2-2-x-3-3-5-5-5-5-5-7-10-9h10p9-|
D|-x-2-2-------5-5-5-5---------------|


E|--------------------------------|
B|--------------------------------|
G|--------------------------------|
D|-x-2-2-x-0-0-5-5-5-5-7-7-7-5----|
A|-x-2-2-x-0-0-5-5-5--------------|
D|-x-2-2-x-0-0-5-5-5--------------|


E|---------------------------------|
B|---------------------------------|
G|-------x-5-5---------------------|
D|-x-2-2-x-5-5-5-5-5-5-5-7-9-12-2--|
A|-x-2-2-x-3-3-5-5-5-5-5-7-9-12-2--|
D|-x-2-2-------5-5-5-5-5-7-9-12-2--|


Verse #2
E|---------------------|
B|---------------------|
G|---------------------|
D|---------------------|
A|---------------------|
D|-52-2/5-5/7-72-2/5---|


E|-----------------------------------|
B|-----------------------------------|
G|-----------------------------------|
D|-9b10r9-7-9b10r9-7-9b10r9-7-5-5----|
A|------------------------------6/10-|
D|-----------------------------------|

Chorus
E|--------------------------------|
B|--------------------------------|
G|--------------------------------|
D|-x-2-2-x-0-0-5-5-5-5-7-7-7-5----|
A|-x-2-2-x-0-0-5-5-5--------------|
D|-x-2-2-x-0-0-5-5-5--------------|


E|-----------------------------------|
B|-----------------------------------|
G|-------x-5-5-----------------------|
D|-x-2-2-x-5-5-5-5-5-5---------------|
A|-x-2-2-x-3-3-5-5-5-5-5-7-10-9h10p9-|
D|-x-2-2-------5-5-5-5---------------|


E|--------------------------------|
B|--------------------------------|
G|--------------------------------|
D|-x-2-2-x-0-0-5-5-5-5-7-7-7-5----|
A|-x-2-2-x-0-0-5-5-5--------------|
D|-x-2-2-x-0-0-5-5-5--------------|


E|----------------------------------|
B|----------------------------------|
G|-------x-5-5----------------------|
D|-x-2-2-x-5-5-5-5-5-5-5-7-9-12-2-0-|
A|-x-2-2-x-3-3-5-5-5-5-5-7-9-12-2-0-|
D|-x-2-2-------5-5-5-5-5-7-9-12-2-0-|


E|--------------------------------------------------|
B|--------------------------------------------------|
G|-44444444-88888888--99999999-77777-9-7-5-44444444-|
D|-xxxxxxxx-xxxxxxxx
Добавлено: 22.01.2014
Другие материалы по этой песне:
  • Аккорды и текст

Страница создана 22.01.2014
http://primanota.ru/bayside/bayside-chords.htm
Привет, Гость.
Предлагаем пройти революционный курс по гитаре.
Подарок от PrimaNota.Ru, забирай!