PrimaNota.ru - самый крупный в мире бесплатный архив песенных текстов, аккордов, табулатур и нот


Bayside - Answers We'll Never Get - текст песни, таба, видео

Регистрация Запомнить меня
Войти через:  Facebook Google Twitter Vk Yandex Mail.ru

Bayside - Answers We'll Never Get - текст песни, таба, видео

Печатать
Просмотров: 111
BAYSIDE
ANSWERS WE'LL NEVER GET


TUNED DOWN ONE WHOLE STEP

< > - artificial harmonic
p -pull off                                              ||
h -hammer on                                             ||o
/ -slide                                                 ||
: check for insert                                       || 
                                                         ||o
Watch for the Repeat Bars during the verse. they're  the ||   things. 
       |
Note:  |'s do not count measures, they simply divide the music. 
       |

Basicaly, this song makes clever use of bar chords throughout,like most
acoustic songs. The intro, for example, B, an A, and an Abmaj. the 
fingering is easy once you get figure it out. and as always, 
listen to the song to help you out. 

TUNED DOWN ONE WHOLE STEP


--Intro--

|-------------|-------4---|-------------|-----------------|
|---5p4-------|--4-5--5---|---------2---|---------4-------|
|-------4-----|--4-4--4---|-------4-4---|-------4---4-----|
|---------6---|6------6---|-----2---2---|-----4-----------|
|-----------4-|-------4---|---0-----0---|---2---------2---|
|-------------|-----------|-------------|-----------------|

|------------|----------------------|---------------|-----------------|
|-------4-5--|---5p4---------4-5----|-----------2---|---------4-------|
|-------4-4--|-------4-------4-4----|---------4-4---|-------4---4-----|
|-----6---6--|---------6---6------6-|-------2---2---|-----------------|
|---4--------|-----------4----------|--4--0---------|---2---------2---|
|------------|----------------------|---------------|-----------------|

|-------------|
|--------4-5--|
|-------------|
|------6------|
|--2/4--------|
|-------------|



-- Part I --


                          I    wonder....     ...said the right things...
|---------------------4|-----------------|-----------|---------------|
|---5p4---------4-5---5|-------2---------|-------4---|-----------4-5-|
|-------4-------4-4---4|-------2---------|-----------|---------------|
|---------6---6-------6|-------2---------|----4------|---------6-----|
|-----------4---------4|--0----0---------|--2--------|-2---2/4-------|
|----------------------|-----------------|-----------|---------------|

                            Would this wound have bled so much
|---------------------4--|------------|------------|---------------|--------|
|---5p4---------4-5---5--|-------2----|-----4------|----------4-5--|-5p4----|
|-------4-------4-4---4--|-----2------|---4---4----|---------------|-----4--|
|---------6---6-------6--|------------|------------|--------6------|------6-|
|-----------4---------4--|--0---------|-2----------|-2-2/4---------|-------4|
|------------------------|------------|------------|---------------|--------|


|----------4--|
|----4-5---5--|
|----4-4---4--|
|6---------6--|
|----------4--|
|-------------|



-- Part II --

               Words..                  ..left for us
               I wonder why...          ..such a rush
|| ------------0-----------------0--0-----4-4--4-----||----------------- ||
||o------------0-----------------0--0-----5-5--5-----||--4----4-4-------o||
|| ------------1-----------------0--0-----6-6--6-----||--4----4-4------- ||  
|| -----2------2---------------6-6--6-----6-6--6-----||--4----4-4------- ||
||o -----------2--------------6--6--6-----4-4--4-----||--2----2-2-------o||
|| ---0--------0--------0-0/4----4--4-----x-x--x-----||--x----x-x------- ||

Repeat once



-- Part III --

 
 I'll march into my...                    ..you now.    The last  man   standing
 While worms eat...                      your grave.     I'll still be     trying
|| -----------------------------------------0--0--0--|---0----0--0-----------
||o-------------4-----4------5---5---5------0--0--0--|---2----2--2----4--4-4-
|| -2---x-2-----4---x-4------6---6---6------1--1--1--|---2----2--2----4--4-4-
|| -2---x-2-----4---x-4------6---6---6------2--2--2--|---2----2--2----4--4-4-
||o-0---x-0-----2---x-2------4---4---4------2--2--2--|---0----0--0----2--2-2-
|| -----------------------------------------0--0--0--|-----------------------


 But not the last one... 
 To get your laugh out of..             
|----0--------0---0---:---x---x-x-- ||     :--------               
|----0--------0---0---:---5---5-5--o||     :-4--4-4-                         
|----1--------1---1---:---6---6-6-- ||     :-4--4-4-                        
|----2--------2---2---:---6---6-6-- || x2  :-4--4-4-
|----2--------2---2---:---4---4-4--o||     :-2--2-2-
|----0--------0---0---:------------ ||     :--------               




-- Part IV --
      I just        need some more-- just need some..
      It's not      how we should..   said goodbye
|| ------------------------------------------------------- ||
||o---/9--9--9-9------------------------------------------o||
|| ---/9--9--9-9----/13--13-13---------------------------- || x4  
|| ---/9--9--9-9----/13--13-13----11-11-11-11--15-15-15--- || lyrics on 2 
||o---/7--7--7-7----/11--11-11----11-11-11-11--11-11-11---o|| 
|| -------------------------------9--9--9--9---9--9--9---- ||


  Wasted.....                  my   time..
|----------------------------------------------------------------|
|----------------------------------------------------------------|
|---------------------------------------------------9-9--9---9---|
|------4---4--4--4--4--4--4--4--4---/9--9--9--9--9--9-9--9-9-9---|
|------4---4--4--4--4--4--4--4--4---/9--9--9--9--9--9-9--9-9-9---|
|--2---2---2--2--2--2--2--2--2--2---/7--7--7--7--7--7-7--7-7-7---|


And I thought...              stronger         than ones before
Now that I lost you..                      feels like I    lost myself 
|| ---------------------------------------------------4--4-4------4--|
||o----9------------9-----------9--------------9--4-4-5--5-5------5--|
|| ----9------------9-----------9--------------9--5-5-6--6-6------6--|
|| ----9------------9-----------9--------------9--6-6-6--6-6------6--|
||o----7------------7-----------7--------------7--6-6-4--4-4------4--|
|| -----------------------------------------------4-4----------------|



 When I said...                  I didn't expect you to quit.
 I found...                     Regret...
|---------------------------------------------------------- ||
|----------------------------------------------------------o||
|----------------------------------/8----8----8----8------- || repeat once.
|-------4-------4-----4-----4------/9----9----9----9------- ||
|-------4-------4-----4-----4------/9----9----9----9-------o||
|-------2-------2-----2-----2------/7----7----7----7------- ||



-- Ending -- 

                                           Answers we'll 
|| -------------------------------------------------------| 
||o---/9--9--9-9------------------------------------------|
|| ---/9--9--9-9----/13--13-13----------------------------| 
|| ---/9--9--9-9----/13--13-13----11-11-11-11--15-15-15---| 
||o---/7--7--7-7----/11--11-11----11-11-11-11--11-11-11---|
|| -------------------------------9--9--9--9---9--9--9----|

    never get...
 |------------------------------------------------------ ||
 |---9--9--9-9------------------------------------------o|| repeat once 
 |---9--9--9-9----/13--13-13---------------------------- || 
 |---9--9--9-9----/13--13-13----11-11-11-11--15-15-15--- || 
 |---7--7--7-7----/11--11-11----11-11-11-11--11-11-11---o|| 
 |-------------------------------9--9--9--9---9--9--9--- ||


 ||----------------
 ||------<9>--------
 ||---<9>------------
 ||---------<11>~ ~ ~ ~
 ||------------------ This ending isn't needed, but I think it sounds nice. 
 ||----------------




There you have it, all done out by ear, so theres probably some mistakes. 
Feel free to contact me if you have something to add to it! 

Добавлено: 10.08.2013
Другие материалы по этой песне:
  • Аккорды и текст

Страница создана 22.06.2012
http://primanota.ru/bayside/answers-well-never-get-chords.htm
Привет, Гость.
Предлагаем пройти революционный курс по гитаре.
Подарок от PrimaNota.Ru, забирай!