PrimaNota.ru - самый крупный в мире бесплатный архив песенных текстов, аккордов, табулатур и нот


Bayside - A Call To Arms - таба, видео

Регистрация Запомнить меня
Войти через:  Facebook Google Twitter Vk Yandex Mail.ru

Bayside - A Call To Arms - таба, видео

Печатать
Просмотров: 84
A Call to Arms - Shudder - Bayside

idk, this is just the intro, I plan on finishing the song, bass included.

so wait if you can, or just build off of this.

rate, please and thank you



 Intro
  Q=110

Gtr I
|------------------|------------------|
|------------------|------------------|
|------------------|------------------|
|---4---4---4---4--|---4---4---4---4--|
|-2---2---2---2----|-0---0---0---0----|
|------------------|------------------|

|------------------|------------------|
|------------------|------------------|
|------------------|------------------|
|---4---4---4---4--|---4---4---4---4--|
|------------------|------------------|
|-4---4---4---4----|-3---3---3---3----|


|
|-------------------|--------------------|
|-------------------|--------------------|
|-------------------|--------------------|
|---4----4---4----4-|----4----4---4----4-|
|-2----2---2----2---|-0----0----0---0----|
|-------------------|--------------------|
|                              , IV
|-------------------|-----------------||
|-------------------|-----------------||
|-------------------|--4---4--4-4-4-4-||
|---4---4---4---4---|--5---5--5-5-5-5-||
|-------------------|--5---5--5-5-5-5-||
|-4---4---4---4-----|--3---3--3-3-3-3-||



  Gtr I
|-----------------------|---------------------|
|-----------------------|---------------------|
|-11-11-9-9-14-14-14-14-|-7-7-6-6-11-11-11-11-|
|--x--x-x-x--x--x--x--x-|-x-x-x-x--x--x--x--x-|
|--9--9-7-7-12-12-12-12-|-5-5-4-4--9--9--9--9-|
|-----------------------|---------------------|
|
| Gtr II
|--------------------|---------------------|
|--------------------|---------------------|
|-----------7-7------|---------------------|
|--9-9--7-7-7-7--7-7-|-5-5--4-4--9-9--9--9-|
|--9-9--7-7-5-5--7-7-|-5-5--4-4--9-9--9--9-|
|--7-7--5-5------5-5-|-3-3--2-2--7-7--7--7-|


|-------------------------|--------------------------|
|-------------------------|--------------------------|
|-14-14-14-14-16-16-16-16-|-11-11-11-11-11-11-11-11--|
|--x--x--x--x--x--x--x--x-|--x--x--x--x--x--x--x--x--|
|-12-12-12-12-14-14-14-14-|--9--9--9--9--9--9--9--9--|
|-------------------------|--------------------------|
|
|-------------------------|--------------------------|
|-------------------------|--------------------------|
|--7--7--7--7--9--9--9--9-|-11-11-11-11-11-11-11-11--|
|--7--7--7--7--9--9--9--9-|--x--x--x--x--x--x--x--x--|
|--5--5--5--5--7--7--7--7-|--9--9--9--9--9--9--9--9--|
|-------------------------|--------------------------|


|-----------------------|---------------------|
|-----------------------|---------------------|
|-11-11-9-9-14-14-14-14-|-7-7-6-6-11-11-11-11-|
|--x--x-x-x--x--x--x--x-|-x-x-x-x--x--x--x--x-|
|--9--9-7-7-12-12-12-12-|-5-5-4-4--9--9--9--9-|
|-----------------------|---------------------|
|
|-----------------------|---------------------|
|-----------------------|---------------------|
|------------7--7-------|---------------------|
|--9--9-7-7--7--7--7--7-|-5-5-4-4--9--9--9--9-|
|--9--9-7-7--5--5--7--7-|-5-5-4-4--9--9--9--9-|
|--7--7-5-5--------5--5-|-3-3-2-2--7--7--7--7-|


|-------------------------|--------------------------|
|-------------------------|--------------------------|
|-14-14-14-14-16-16-16-16-|-11-11-11-11-11-11-11-11--|
|--x--x--x--x--x--x--x--x-|--x--x--x--x--x--x--x--x--|
|-12-12-12-12-14-14-14-14-|--9--9--9--9--9--9--9--9--|
|-------------------------|--------------------------|
|
|-------------------------|--------------------------|
|-------------------------|--------------------------|
|--7--7--7--7--9--9--9--9-|-11-11-11-11-11-11-11-11--|
|--7--7--7--7--9--9--9--9-|--x--x--x--x--x--x--x--x--|
|--5--5--5--5--7--7--7--7-|--9--9--9--9--9--9--9--9--|
|-------------------------|--------------------------|

Добавлено: 04.07.2013
Другие материалы по этой песне:
  • Аккорды и текст

Страница создана 07.06.2013
http://primanota.ru/bayside/a-call-to-arms-chords.htm
Привет, Гость.
Предлагаем пройти революционный курс по гитаре.
Подарок от PrimaNota.Ru, забирай!