PrimaNota.ru - самый крупный в мире бесплатный архив песенных текстов, аккордов, табулатур и нот


Bauhaus - Who Killed Mr Moonlight - текст песни, таба, бас-таба, видео

Регистрация Запомнить меня
Войти через:  Facebook Google Twitter Vk Yandex Mail.ru

Bauhaus - Who Killed Mr Moonlight - текст песни, таба, бас-таба, видео

Печатать
Просмотров: 237
Авторы музыки: David John Haskins, Kevin Haskins, Peter Murphy, Daniel Ash

-------------------------------------------------------------------------------
                             who killed mr. moonlight? - bauhaus
-------------------------------------------------------------------------------
Tabbed by: joshua st.louis
E-mail: pukeandpiss12@yahoo.com

Tuning: standard
(piano arranged for the guitar)


intro

                                           ...or
e|-12-17-19-20-19---12-17-19-20-19---------------------0-5-7-8-7-------------|
B|---------------------------------------------------------------------------|
G|---------------------------------------------------------------------------|
D|---------------------------------------------------------------------------|
A|---------------------------------------------------------------------------|
E|---------------------------------------------------------------------------|


then



e|---------------------------------------------------------------------------|
B|-----0-1-0-----------0-1-0-----------0-1-0-----------0-3-1---0-------------|
G|---2---------2-----2---------2-----2---------2-----2---------2-------------|
D|-2-----------2---2-----------2---2-----------2---2-------------------------|
A|---------------------------------------------------------------------------|
E|---------------------------------------------------------------------------|



repeat this riff several times with the lyrics that follow 

                        
e|--------------------------------------------|
B|-----0-1-0-----------0-3-1---0--------------|
G|---2---------2-----2---------2--------------|
D|-2-----------2---2--------------------------|
A|--------------------------------------------|
E|--------------------------------------------|



consider green lakes and the idiocy of clocks
someone shot nostalgia in the back
someone shot our innocence
and all our colors have run

Abm       B          F#
a broken arrow in a bloody pool
Abm                       B       F#
the wound in the face of midnight proposals
Abm              B            F#
someone shot nostalgia in the back
Abm               B        F#
someone shot out innocence
F#
in the shadow of his...


smile

e|-------------------------------|
B|-----0-1-0------0-1-0----------|
G|---2----------2----------------|
D|-2----------2------------------|
A|-------------------------------|
E|-------------------------------|


(play riff accompanying the above lyrics)

in the shadow of his smile
in the shadow of his smile 
in the shadow of his smile

Abm                  B                 F#
all our dreams have melted down, we're hiding in the bushes
Abm          B                   F#
             from dead men doing douglas fairbanks stunts
Abm             B          F#
all our stories burnt, our films lost in the rushes
Abm                B               F#
we can't paint any pictures as the moon had all our brushes
Abm             B                     F#
                extracting wasps from stings in flight 
Abm             B          F#
who             killed mr. moonlight
Abm                   B
extracting wasps from stings in flight
F#
who killed mr. moonlight?
Abm                   B
extracting wasps from stings in flight
F#
who killed mr.moonlight?
Abm                   B             F#
                                    in the shadow of his smile
Abm                   B             F#
                                    who killed mr. moonlight?



(repeat)
Добавлено: 14.10.2014
Другие материалы по этой песне:
  • Аккорды и текст

Страница создана 06.06.2012
http://primanota.ru/bauhaus/who-killed-mr-moonlight-chords.htm
Привет, Гость.
Предлагаем пройти революционный курс по гитаре.
Подарок от PrimaNota.Ru, забирай!