PrimaNota.ru - самый крупный в мире бесплатный архив песенных текстов, аккордов, табулатур и нот


Bauhaus - Departure - текст песни, бас-таба, видео

Регистрация Запомнить меня
Войти через:  Facebook Google Twitter Vk Yandex Mail.ru

Bauhaus - Departure - текст песни, бас-таба, видео

Печатать
Просмотров: 80
Авторы музыки: David J, Kevin Haskins, Peter Murphy, Daniel Ash

-------------------------------------------------------------------------------
                             DEPARTURE - Bauhaus
-------------------------------------------------------------------------------
Tabbed by: Ricardo Santos
E-mail: darkest.god@gmail.com

Tuning: standard

+/- 140bpm, with a jazzy/fretless bass sound.

Part 1
  
 |1   2   3   4   |1   2   3   4   |1   2   3   4   |1   2   3   4

G|----------------|----------------|----------------|----------------|
D|--------2-------|----------------|--------2-------|----------------|
A|0---3-------3---|2---------------|0---3-------3---|4---------------|
E|----------------|----3---4---0---|----------------|----3---4---0---|

G|----------------|----------------|----------------|----------------|
D|--------2-------|----------------|--------2-------|----------------|
A|0---3-------3---|2---------------|0---3-------3---|4---------------|
E|----------------|----3---4---0---|----------------|----3---4---0---|

G|----------------|----------------|----------------|----------------|
D|----------------|----------------|----------------|----------------|
A|0---------------|----------------|----------------|----------------|
E|----------------|----------------|----------------|2-1-0-2x--2x----|

Part 2

 |1   2   3   4   |1   2   3   4   |1   2   3   4   |1   2   3   4

G|----------------|----------------|----------------|----------------|
D|--------2-2-----|----------------|--------2-2-----|----------------|
A|0-0-3-3-----3-3-|2-2-------------|0-0-3-3-----3-3-|4-4-------------|
E|----------------|----3-3-4-4-0-0-|----------------|----3-3-4-4-0-0-|

G|----------------|----------------|----------------|----------------|
D|--------2-2-----|----------------|--------2-2-----|----------------|
A|0-0-3-3-----3-3-|2-2-------------|0-0-3-3-----3-3-|4-4-------------|
E|----------------|----3-3-4-4-0-0-|----------------|----3-3-4-4-0-0-|

G|----------------|----------------|----------------|----------------|
D|----------------|----------------|----------------|----------------|
A|0---------------|----------------|----------------|----------------|
E|----------------|----------------|----------------|2-1-0-2x--2x----|


| /  slide up
| \  slide down
| h  hammer-on
| p  pull-off
| ~  vibrato
| +  harmonic
| x  Mute note
===============================================================================
Добавлено: 15.05.2016
Другие материалы по этой песне:
  • Аккорды и текст

Страница создана 23.04.2012
http://primanota.ru/bauhaus/departure-chords.htm
Привет, Гость.
Предлагаем пройти революционный курс по гитаре.
Подарок от PrimaNota.Ru, забирай!