PrimaNota.ru - самый крупный в мире бесплатный архив песенных текстов, аккордов, табулатур и нот


Bauhaus - A God in an Alcove - текст песни, таба, видео

Регистрация Запомнить меня
Войти через:  Facebook Google Twitter Vk Yandex Mail.ru

Bauhaus - A God in an Alcove - текст песни, таба, видео

Печатать
Просмотров: 167
Авторы музыки: Bauhaus

    Title: GOD IN AN ALCOVE
   Author: BAUHAUS
   Tabber: stephen terrones

This is close anyway.  

into
e :0------------------------------0-----0------------
B :3------------------------------0-----0-0-------0--
G :4------------------0-----------2---------2---2----
D :4---------------------4~~~0----3-----------3-----3
A :2------------------------------3------------------
E :--------------------------------------------------

e :0------------------------------0-----
B :3------------------------------0-----
G :4------------------0-----------2-----
D :4---------------------4~~~0----3-----
A :2------------------------------3-----
E :0------------------------------1-----

intro verse  
      pm--------------------------------------------
e :0-----------------------------------------------------0-0---0-0--
B :0-----------------------------------------------------0-0---0-0--
G :0----------------------------------------------------------------
D :2---------------------------------------------------2------------
A :2-------------------------2-2-----------------------------2------
E :0-----0-0-0-0-0-0-0-0-0-0-----0-1-1-1-1-1-1-1-1-1-0-------0------

verse pt2
 pm--------------------------------------------------
e :-------------------------------------------------------0-0---0-0--
B ::------------------------------------------------------0-0---0-0-:
G :------------------------------------------------------------------
D :-----------------------------------------------------2------------
A ::--------------------------2-2-----------------------------2-----:
E :-0-0-0-0-0-0-0-0-0-0-0-0-0-----0-1-1-1-1-1-1-1-1-1-0-------0------

chorus
"He's a god.."
      e :----------12-----------12------------0------------0---------
      B ::---------12-----------12------------0----------- 0--:------
      G :-0---0--x-12--0---0--x-12--0h2-2--x--0--0h2-2--x--0---0-----
      D :-0h2-2--x-----0h2-2--x-----0h3-3--x-----0h3-3--x------0h2---back
      A ::0h2-2--x-----0h2-2--x-----0h3-3--x-----0h3-3--x-----:0h2---to 
      E
:-0---0--x-----0---0--x-----0h1-1--x-----0h1-1--x------0-----verse pt2 
             just the first
             time.


 chorus extended  
      e :-----------0-0---0--0-0---0-----------0-0---0-0-0---0--
      B ::----------5-4^5-5--4-4^5-5-----------5-4^5-5-4-4^5-5-:
      G :-0---0--x-------------------0h2-2--x-------------------
      D :-0h2-2--x-------------------0h3-3--x-------------------
      A ::0h2-2--x-------------------0h3-3--x------------------:
      E :-0---0--x-------------------0h1-1--x-------------------

  end of chorus extended
 e :---------12----12-12-----------12----12-12------0-
 B :---------12----12-12-----------12----12-12-:----0-
 G :0---0----12----12-12--0h2-2----12----12-12--0---0-
 D :0h2-2-----------------0h3-3-----------------0h2-2-
 A :0h2-2-----------------0h3-3----------------:0h2-2-
 E :0---0-----------------0h1-1-----------------0---0-
                                               

little fill things:  Listen to the song for placement. 
hrmncs----------                hrmncs-----------------
e :12------------ e:12-12-12---- e:12------------12-------
e:----------------
B :----12-------- B:12-12-12---- B:---12-----12-----------
B:----------------
G :--------12---- G:12-12-12---- G:------12---------------
G:---0------------
D :-------------- D:------------ D:-----------------------
D:---2------------
A :-------------- A:------------ A:-----------------------
A:---2------------
E :-------------- E:------------ E:-----------------------
E:12\0------------
    

SOLO THING:  Strum these like you're totaly insane . this is not exact
just remember, INSANE!  
e :12-12-12-12- e:12-15-15-12-
e:12-12-15-15-17-17-19-19-21-21-19-17-15-12--
B :12-12-12-12- B:12-15-15-12-
B:12-12-15-15-17-17-19-19-21-21-19-17-15-12--
G :12-12-12-12- G:12-12-12-12-
G:12-12-15-15-17-17-19-19-21-21-19-17-15-12--
D :12-12-12-12- D:12-12-12-12-
D:12-12-15-15-17-17-19-19-21-21-19-17-15-12--
A :------------ A:------------
A:-------------------------------------------
E :------------ E:------------
E:-------------------------------------------



     
Добавлено: 23.11.2013
Другие материалы по этой песне:
  • Аккорды и текст

Страница создана 28.03.2012
http://primanota.ru/bauhaus/a-god-in-an-alcove-chords.htm
Привет, Гость.
Предлагаем пройти революционный курс по гитаре.
Подарок от PrimaNota.Ru, забирай!