PrimaNota.ru - самый крупный в мире бесплатный архив песенных текстов, аккордов, табулатур и нот


Bauer, Axel - Eteind La Lumiere - аккорды и текст, видео

Регистрация Запомнить меня
Войти через:  Facebook Google Twitter Vk Yandex Mail.ru

Bauer, Axel - Eteind La Lumiere - аккорды и текст, видео

Печатать
Просмотров: 107
Eteind La Lumiere
Bauer, Axel
Transcrit par Pierre Détartrant.
Emission TARATATA avec Axel Bauer et Jean-Louis Aubert.

 A       D      Dsus4    F      B7
-0-     -x-     -x-     -1-     -2-
-1-     -7-     -8-     -1-     -0-
-1-     -7-     -7-     -2-     -2-
-1-     -7-     -7-     -3-     -1-
-x-     -x-     -x-     -3-     -2-
-x-     -x-     -x-     -1-     -x-

Riff
  A                                               D     Dsus4    D     Dsus4
--0-----------------------------------------------7--7--7--7-----7--7--7--7---
--2-----------------------------------------------8--8--7--7-----8--8--7--7---
--2-----------------------------------------------7--7--7--7-----7--7--7--7---  x2
--2---------------------------------------------------------------------------
--0--0----0--3-0----0-----0----0--3-0-----0-----------------------------------
--0----3----------3-----------3-----------3-------7---------------------------


Couplet 1
A                             D
A force de se voir, on ne se voyait plus
A                               D
A tant vouloir y croire, on n'y croyait plus
A                         D
Et me laisse pas, si tu n'es pas sure
A                        D
Loin, loin de toi, tu me dis tout bas
F                 A
Cette petite aventure
F              A
Va tourner en déconfiture
F               A       B7      F
Éclaire moi


Refrain
A       F
Éteins la lumière
A                   F
Montre-moi ton coté sombre
A             F
Regarde les ombres
B7
Qui errent
                F
Cherche un peu de lumière
A               D       A       D
Tout s'éclaire


Couplet 2
A                                  D
Maintenant que le ciel n'a plus de mur
A                                  D
Laissons nous glisser dans l'ouverture
A                                 D
Le cœur est si léger, la ou je t'emmène
A                              D
D'autres sont allés dans ce domaine
A          F
Éteins la lumière
A                F
Nettoie ce qui n'est pas toi
F            A           B7      F
Souffle la poussière sur toi

Refrain

Pont
          Tout s'éclaire                 x3                      x3
                ------0-----0-----0------7--7----5--5-------------
                ------2-----4-----2------8--7----6--5-------------
                ------2-----4-----2------7--7----5--5-------------      solo: [ A D ] x6
                ------2-----2-----2------7--7----5--5-------------
                ------0-----0-----0-------------------------------
                ------0-----0-----0----------------------3--4--5--

Couplet 3
A                             D
A force de se voir, on ne se voyait plus
A                             D
A tant vouloir y croire, on n'y croyait plus
F               A
Cette petite aventure
F               A
Va tourner en déconfiture
F               A       B7      F
Éclaire moi

Refrain
Добавлено: 30.07.2015
Другие материалы по этой песне:
  • Аккорды и текст

Страница создана 30.07.2015
http://primanota.ru/bauer-axel/eteind-la-lumiere-chords.htm
Привет, Гость.
Предлагаем пройти революционный курс по гитаре.
Подарок от PrimaNota.Ru, забирай!