PrimaNota.ru - самый крупный в мире бесплатный архив песенных текстов, аккордов, табулатур и нот


Battles - Tij - таба, видео

Регистрация Запомнить меня
Войти через:  Facebook Google Twitter Vk Yandex Mail.ru

Battles - Tij - таба, видео

Печатать
Просмотров: 131
Авторы музыки: Battles

I think they use a Mystery Man pedal speed there loops or a DL-4.

Intro: 0:00, then at 0:38 play the same thing but tap (it is math rock)

E-----------|I
B-----------|I
G--5--------|I
D----7------|I
A------8----|I
E-----------|I

then at 1:19 tremolo pick

E---------|
B---------|
G---------|
D-77777777
A---------|
E---------|

Verse?

Guitar I
E-----------------7-5-------|
B--7-6-7-6-7-6-7-6--------7-|
G---------------------4-5---|
D---------------------------|
A---------------------------|
E---------------------------|

Guitar II- listen to the song to get the timing right.

E--------------|
B--------------|
G-12/7/3/1-----|
D-12/7/3/1-----|
A--------------|
E--------------|

Pre-Chorus 1:48 w/ distortion
E-----
B-----
G-----
D-----
A-3-3b
E-1-1b

Chorus- have someone play the intro riff over this  (you can tap or pick)

E-------------------------------------------------------|
B-------------------------------------------------------|
G-------------------------14----------------------------|  repeat 4 times
D----------------------15----17-17-17-17-17-17-17-15-14-|
A-17-17-17-17-17-17-17----------------------------------|
E-------------------------------------------------------|

Tremolo pick this part

E------------------------|
B------------------------|
G-------14---------------| repeat 7 times
D----15---17-15-14-15----|
A-17------------------17-|
E------------------------|

Bridge (play the verse over this)
E----------------------------|
B----------------------------|
G---5-5-5-5-5----5----5----5-|
D--7-7-7-7--7----7----7----7-|
A-8-8-8-8---8-xx-8-xx-8-xx-8-|
E----------------------------|

Bridge cont.- take your whole hand and place it above the first humbucker and mute all the strings
Stroke down, up, down, up, down, up- listen to song for timing

E-x-x-x-x-x-x-xxxx-------------|
B-x-x-x-x-x-x-----xxxx---------|
G-x-x-x-x-x-x---------xxxx-----|
D-x-x-x-x-x-x-------------xxxx-|
A-x-x-x-x-x-x------------------|
E-x-x-x-x-x-x------------------|

play this over the palm mute part

E--------------------------------|
B--------------------------------|
G--------------------------------|
D-3-3-3-3333-3-3-3-3333-33333333-|
A--------------------------------|
E--------------------------------|

Thats it! Enjoy! grant.kugman@loop.colum.edu
Добавлено: 26.07.2012
Другие материалы по этой песне:
  • Аккорды и текст

Страница создана 26.07.2012
http://primanota.ru/battles/tij-chords.htm
Привет, Гость.
Предлагаем пройти революционный курс по гитаре.
Подарок от PrimaNota.Ru, забирай!