PrimaNota.ru - самый крупный в мире бесплатный архив песенных текстов, аккордов, табулатур и нот


Battles - Atlas - таба, видео

Регистрация Запомнить меня
Войти через:  Facebook Google Twitter Vk Yandex Mail.ru

Battles - Atlas - таба, видео

Печатать
Просмотров: 197
Авторы музыки: Battles

----------------------------------------------------------------------------
                                Atlas - BATTLES
----------------------------------------------------------------------------
Tabbed by: mat
Email: anexperimat@gmail.com

Tuning: standard

the guitarist taps these notes because he has to, but you don't!

Starting 2:16:

e|------------------------------|
B|------------------------------|
G|-h9h8h7--|  x7 then G|--b8----|
D|------------------------------|
A|------------------------------|
E|------------------------------|


e|--------11------------------11----------------|
B|----------------------------------------------|
G|-9-9-9-9---9-9-9-9-987---9-9---9-9-9987987987-| x2
D|----------------------------------------------|
A|----------------------------------------------|
E|----------------------------------------------|


e|--------11------------------11------14--14--14--|
B|------------------------------------------------|
G|-9-9-9-9---9-9-9-9-987---9-9---9-9-9---9---9----|
D|------------------------------------------------|
A|------------------------------------------------|
E|------------------------------------------------|

back to this for the last before the build-up begins:

e|--------11------------------11----------------|
B|----------------------------------------------|
G|-9-9-9-9---9-9-9-9-987---9-9---9-9-9987987987-|
D|----------------------------------------------|
A|----------------------------------------------|
E|----------------------------------------------|

now the build-up, beginning at 3:59 (I know these are the same notes, but it sounds 
Just play the 9 on G forever then. See if I care.):

e|-----------------------------------------------------------------------|
B|-----------------------------------------------------------------------|
G|-9----9----9----9----9----9----9----9----9----9----9----9----b9----9---|
D|-----------------------------------------------------------------------|
A|-----------------------------------------------------------------------|
E|-----------------------------------------------------------------------|


e|---------------------------------------------------------------|
B|--------------5-----5-----5-----5------b5-----5------b5-----5--|
G|-9----9----9-----9-----9-----9-----b9------9-----b9------9-----|
D|---------------------------------------------------------------|
A|---------------------------------------------------------------|
E|---------------------------------------------------------------|


e|-----|
B|---5-|
G|-9---|  x8
D|-----|
A|-----|
E|-----|

e|------------------------------------|
B|---5---5----5---5----5---5----5---5-|
G|-b9--9---b9---9---99---9---99---9---|
D|------------------------------------|
A|------------------------------------|
E|------------------------------------|

e|-----|
B|--5--|
G|-9---| x10
D|-----|
A|-----|
E|-----|

and back into the first riff starting with e|--11--|.

Repeats until the break in the music (6:28), when it turns that  e|--11--| into...

People won't be people when they...

e|--10---rest---13---------------11-----------------|
B|--------------------------------------------------|
G|----------------9-9-9-987---9-9---9-9-9987987987--|
D|--------------------------------------------------|
A|--------------------------------------------------|
E|--------------------------------------------------|


*whew*


| h - hammer-on
| b - bend
=============================================================================
Добавлено: 02.05.2012
Другие материалы по этой песне:
  • Аккорды и текст

Страница создана 02.05.2012
http://primanota.ru/battles/atlas-chords.htm
Привет, Гость.
Предлагаем пройти революционный курс по гитаре.
Подарок от PrimaNota.Ru, забирай!