PrimaNota.ru - самый крупный в мире бесплатный архив песенных текстов, аккордов, табулатур и нот


Battle Ave - Solar Queen - таба, видео

Регистрация Запомнить меня
Войти через:  Facebook Google Twitter Vk Yandex Mail.ru

Battle Ave - Solar Queen - таба, видео

Печатать
Просмотров: 15
-------------------------------------------------------------------------------
                           Solar Queen - Battle Ave
-------------------------------------------------------------------------------

Tuning: Standard

C 2x
                                       F  G
i know things don't turn out as planned 
        F     Am  E  F
i don't mind 
            Am         F           C
you are the egg, & i'm doing fine 

F C F C
                               F G
i am the snake, you are the egg 
  F           Am  E  F
i feel heavy 
      Am                 F          C     
i can hardly breathe the city 

F C F

but i see a light 

e|---------------------------------------------------------------------------|
B|---------------------------------------------------------------------------|
G|---------------------------------------------------------------------------|
D|---------------------------------------------------------------------------|
A|---------------------------------------------------------------------------|
E|--8-8-8-8-8-8-8-8-5-5-5-5-5-5-5-5-1-1-1-1-1-1-1-1-8-8-8-8-8-8-8-8----------|

e|---------------------------------------------------------------------------------|
B|---------------------------------------------------------------------------------|
G|---------------------------------------------------------------------------------|
D|---------------------------------------------------------------------------------|
A|---------------------------------------------------------------------------------|
E|--5-5-5-5-5-5-5-5-1-1-1-1-1-1-1-1-0-0-0-0-0-0-0-0-5-5-5-5-5-5-5-5-4-4-4-4-4-4-4-4|

e|---------------------------------------------------------------------------|
B|--5-8-5-10--5-8-5-10--5-8-5-10--5-8-5-10--5--------------------------------|
G|--5-9-5-10--5-9-5-10--5-9-5-10--5-9-5-10--5--------------------------------|
D|---------------------------------------------------------------------------|
A|---------------------------------------------------------------------------|
E|---------------------------------------------------------------------------|

C

                            F  G
joan is a girl that i admire 
       F      Am E F
always tired 
       Am           F
& i am nothing but a child 

e|---------------------------------------------------------------------------|
B|--5-8-5-10--5-8-5-10--5-8-5-10--5-8-5-10--5--------------------------------|
G|--5-9-5-10--5-9-5-10--5-9-5-10--5-9-5-10--5--------------------------------|
D|---------------------------------------------------------------------------|
A|---------------------------------------------------------------------------|
E|---------------------------------------------------------------------------|

C

                          F       G
i think i make my parents wonder 
        F          Am E
"what a blunder"!
        F          Am
"what a blunder"! 
        F          Am
"what a blunder"! 

"what a blunder"!
e|---------------------------------------------------------------------------|
B|--5-8-5-10--5-8-5-10--5-8-5-10--5-8-5-10--5--------------------------------|
G|--5-9-5-10--5-9-5-10--5-9-5-10--5-9-5-10--5--------------------------------|
D|---------------------------------------------------------------------------|
A|---------------------------------------------------------------------------|
E|---------------------------------------------------------------------------|

but i see a light 
e|---------------------------------------------------------------------------|
B|---------------------------------------------------------------------------|
G|---------------------------------------------------------------------------|
D|---------------------------------------------------------------------------|
A|---------------------------------------------------------------------------|
E|--8-8-8-8-8-8-8-8-5-5-5-5-5-5-5-5-1-1-1-1-1-1-1-1-8-8-8-8-8-8-8-8----------|

e|---------------------------------------------------------------------------------|
B|---------------------------------------------------------------------------------|
G|---------------------------------------------------------------------------------|
D|---------------------------------------------------------------------------------|
A|---------------------------------------------------------------------------------|
E|--5-5-5-5-5-5-5-5-1-1-1-1-1-1-1-1-0-0-0-0-0-0-0-0-5-5-5-5-5-5-5-5-1-1-1-1-1-1-1-1|


how can something come from nothing? 

C Am F Am

F
i'm just a boy who needs attention


e|---------------------------------------------------------------------------|
B|---------------------------------------------------------------------------|
G|---------------------------------------------------------------------------|
D|---------------------------------------------------------------------------|
A|--3-----5/7----------------------------------------------------------------| 4x
E|---------------------------------------------------------------------------|

e|---------------------------------------------------------------------------|
B|---------------------------------------------------------------------------|
G|---------------------------------------------------------------------------|
D|---------------------------------------------------------------------------|
A|--3--5--7--10-10-8--10-10-7------------------------------------------------| 10x
E|---------------------------------------------------------------------------|

e|---------------------------------------------------------------------------|
B|---------------------------------------------------------------------------|
G|---------------------------------------------------------------------------|
D|---------------------------------------------------------------------------|
A|--3-----5/7----------------------------------------------------------------| 1x
E|---------------------------------------------------------------------------|
Добавлено: 16.06.2016
Другие материалы по этой песне:
  • Аккорды и текст

Страница создана 16.06.2016
http://primanota.ru/battle-ave/solar-queen-chords.htm
Привет, Гость.
Предлагаем пройти революционный курс по гитаре.
Подарок от PrimaNota.Ru, забирай!