PrimaNota.ru - самый крупный в мире бесплатный архив песенных текстов, аккордов, табулатур и нот


Baton Rouge - Que Des Fils - таба, видео

Регистрация Запомнить меня
Войти через:  Facebook Google Twitter Vk Yandex Mail.ru

Baton Rouge - Que Des Fils - таба, видео

Печатать
Просмотров: 15
-------------------------------------------------------------------------------
                             Que Des Fils - Baton Rouge
-------------------------------------------------------------------------------
Tabbed by: Maggie Barnett
E-mail: maggiebarnetttoo@gmail.com

Tuning: Half-step down

Guitar 1: Intro and Verse
D#|-------------------------7-------------------------------------------------|
A#|---9--------5-5--5----------------9-9--9-----------------------------------|
F#|-9---9/6-9--6-6--6---8/9---9/8/9--9-9--9-----------------------------------|x10
C#|---------------------------------------------------------------------------|
G#|---------------------------------------------------------------------------|
D#|---------------------------------------------------------------------------|

Guitar 2: Verse
D#|---------------------------------------------------------------------------|
A#|---------------------------------------------------------------------------|
F#|-9999999999999-888888888888-666666666666-8888------------------------------|
C#|-xxxxxxxxxxxxx-xxxxxxxxxxxx-xxxxxxxxxxxx-xxxx------------------------------|
G#|-7777777777777-666666666666-444444444444-6666------------------------------|
D#|---------------------------------------------------------------------------|

Guitar 2: Verse (Cont.)
D#|---------------------------------------------------------------------------|
A#|---------------------------------------------------------------------------|
F#|-999999999999-131313131313131313131313-666666666666-8888-------------------|
C#|-xxxxxxxxxxxx-x-x-x-x-x-x-x-x-x-x-x-x--xxxxxxxxxxxx-xxxx-------------------|x8
G#|-777777777777-111111111111111111111111-444444444444-6666-------------------|
D#|---------------------------------------------------------------------------|

Guitars 1 and 2: Chorus
D#|---------------------------------------------------------------------------|
A#|---------------------------------------------------------------------------|
F#|---------------------------------------------------------------------------|
C#|-444444444444-2222-777777777777-9999---------------------------------------|x4
G#|-444444444444-2222-777777777777-9999---------------------------------------|
D#|-222222222222-0000-555555555555-7777---------------------------------------|

Guitars 1 and 2: Break
D#|---------------------------------------------------------------------------|
A#|---------------------------------------------------------------------------|
F#|-9999999999999-888888888888-666666666666-8888------------------------------|
C#|-xxxxxxxxxxxxx-xxxxxxxxxxxx-xxxxxxxxxxxx-xxxx------------------------------|
G#|-7777777777777-666666666666-444444444444-6666------------------------------|
D#|---------------------------------------------------------------------------|

D#|---------------------------------------------------------------------------|
A#|---------------------------------------------------------------------------|
F#|-999999999999-131313131313131313131313-666666666666-8888-------------------|
C#|-xxxxxxxxxxxx-x-x-x-x-x-x-x-x-x-x-x-x--xxxxxxxxxxxx-xxxx-------------------|x2
G#|-777777777777-111111111111111111111111-444444444444-6666-------------------|
D#|---------------------------------------------------------------------------|

Both guitars:
D#|-------------------------7-------------------------------------------------|
A#|---9--------5-5--5----------------9-9--9-----------------------------------|
F#|-9---9/6-9--6-6--6---8/9---9/8/9--9-9--9-----------------------------------|x4
C#|---------------------------------------------------------------------------|
G#|---------------------------------------------------------------------------|
D#|---------------------------------------------------------------------------|

Guitar 1:
D#|----------------------------------------------------------------------------|
A#|----------------------------------------------------------------------------|
F#|-99999991199999911999999991199999999999999999999999999999999999999999999----|
C#|-xxxxxxxx-xxxxxxx-xxxxxxxxx-xxxxxxxxxxxxxxxxxxxxxxxxxxxxxxxxxxxxxxxxxxxx----|
G#|-77777777777777777777777777777777777777777777777777777777777777777777777----|
D#|----------------------------------------------------------------------------|

Guitar 2:
D#|-------------------------7-------------------------------------------------|
A#|---9--------5-5--5----------------9-9--9-----------------------------------|
F#|-9---9/6-9--6-6--6---8/9---9/8/9--9-9--9-----------------------------------|x4
C#|---------------------------------------------------------------------------|
G#|---------------------------------------------------------------------------|
D#|---------------------------------------------------------------------------|

Outro: Guitar 1:
D#|---------------------------------------------------------------------------|
A#|---------------------------------------------------------------------------|
F#|-99999999999999999999999999999999999999999999999999999999------------------|
C#|-xxxxxxxxxxxxxxxxxxxxxxxxxxxxxxxxxxxxxxxxxxxxxxxxxxxxxxxx------------------|
G#|-77777777777777777777777777777777777777777777777777777777------------------|
D#|---------------------------------------------------------------------------|

Outro: Guitar 2:
D#|---------------------------------------------------------------------------|
A#|---------------------------------------------------------------------------|
F#|-9-8-13-8-6---9-8-13-8-6---9-8-13-8-6---9-8-13-16-18-----------------------|
C#|-x-x-x--x-x---x-x-x--x-x---x-x-x--x-x---x-x-x--x--x------------------------|
G#|-7-6-11-6-4---7-6-11-6-4---7-6-11-6-4---7-6-11-14-16-----------------------|
D#|---------------------------------------------------------------------------|



************************************

| /   slide up
| \   slide down
| h   hammer-on
| p   pull-off
| ~   vibrato
| +   harmonic
| x   Mute note
| b   Bend
| pb  Pre-bend
| br  Bend release
| pbr Pre-bend release
| brb Bend release bend

************************************
Добавлено: 11.06.2016
Другие материалы по этой песне:
  • Аккорды и текст

Страница создана 11.06.2016
http://primanota.ru/baton-rouge/que-des-fils-chords.htm
Привет, Гость.
Предлагаем пройти революционный курс по гитаре.
Подарок от PrimaNota.Ru, забирай!