PrimaNota.ru - самый крупный в мире бесплатный архив песенных текстов, аккордов, табулатур и нот


Bathory - Sword - текст песни, таба, видео

Регистрация Запомнить меня
Войти через:  Facebook Google Twitter Vk Yandex Mail.ru

Bathory - Sword - текст песни, таба, видео

Печатать
Просмотров: 258
Уроки эстрадного вокала в Санкт-Петербурге
Авторы музыки: Quorthon
Авторы текста: Quorthon
Intro Riffs
|-----------------------------------------|
|-----------------------------------------|
|--7---77777--77777--77777--77777------7--|
|--7---77777--77777--77777--77777------7--|
|--5---55555--55555--55555--55555------5--|
|-----------------------------------------|

|-----------------------------------------|
|-----------------------------------------|
|--5---55555--55555--55555--55555------5--|
|--5---55555--55555--55555--55555------5--|
|--3---33333--33333--33333--33333------3--|
|-----------------------------------------|

this riff you play a little more then whats written
 here but just listen to the song and figure it out
|-----------------------------------------|
|-----------------------------------------|
|--4---44444--44444--44444--44444-------4-|
|--4---44444--44444--44444--44444-------4-|
|--2---22222--22222--22222--22222-------2-|
|-----------------------------------------|

Main Riff at the begging before singing
it isnt exact but you get the point...

Riff 1
|----------------------------------|
|----------------------------------|
|-2-2/4---4-4---4-4---4/7----------|
|-0-0/2---2-2---2-2---2/5----------|
|----------------------------------|
|----------------------------------|


Riff 2
|-------------------------------------------------|
|-------------------------------------------------|
|--2-2--4---4-4---4-4---4-4---4-4---4-4---4---5---|
|--0-0--2---2-2---2-2---2-2---2-2---2-2---2---3---|
|-------------------------------------------------|
|-------------------------------------------------|

Fill 1 (used when tehres no singing and goes after Riff 1)
|--------------------------|
|--------------------------|
|--5555--6666--7777--8888--|
|--5555--6666--7777--8888--|
|--3333--4444--5555--6666--|
|--------------------------|

Fill 2 ( used when hes singing mostly and varies when
played in different parts of the song...)
|--------------------------|
|--------------------------|
|-5555--5555--5------------|
|-5555--5555--5------------|
|-3333--3333--3------------|
|--------------------------|

Riff 3
Somehting like this is played here when quarthon sings
Noooooowww  ii    ammm reaadyyy....
|------------------------------|
|------------------------------|
|--4---4-4---4-4---4/5---2-2---|
|--4---4-4---4-4---4/5---2-2---|
|--2---2-2---2-2---2/3---0-0---|
|------------------------------|

Riff 4
|-------------------------------------|
|-------------------------------------|
|--77---66---55---44--44--44----------|
|--77---66---55---44--44--44----------|
|--55---44---33---22--22--22----------|
|-------------------------------------|

Outro
|--------------|-------------|-----------------|---------------|--------------

-----|
|--------------|-------------|-----------------|---------------|--------------

-----|
|--5---7---9---|--9---7---5--|---5---7---4-4-4-|---4---5---2---|--5-----2-----

-----|
|--5---7---9---|--9---7---5--|---5---7---4-4-4-|---4---5---2---|--5--5--2-----

-----|
|--3---5---7---|--7---5---3--|---3---5---2-2-2-|---2---3---0---|--3--5--0-----

-----|
|--------------|-------------|-----------------|---------------|-----3--------

-----|


 
Добавлено: 09.04.2012
Другие материалы по этой песне:
  • Аккорды и текст

Страница создана 09.04.2012
http://primanota.ru/bathory/sword-chords.htm
Привет, Гость.
Предлагаем пройти революционный курс по гитаре.
Подарок от PrimaNota.Ru, забирай!