PrimaNota.ru - самый крупный в мире бесплатный архив песенных текстов, аккордов, табулатур и нот


Bathory - Armageddon - текст песни, таба, видео

Регистрация Запомнить меня
Войти через:  Facebook Google Twitter Vk Yandex Mail.ru

Bathory - Armageddon - текст песни, таба, видео

Печатать
Просмотров: 271
Bathory:Armageddon.

This is the last song i will tab from Bathory,s 
important and classic first LP.

Riff 1

e:---------------------------------------------------------------|
B:---------------------------------------------------------------|
G:-99999999-10-99999999-7-99999999-10-99999999-7-----------------|
D:-99999999-10-99999999-7-99999999-10-99999999-7-----------------|
A:-77777777-8--77777777-5-77777777-8--77777777-5-----------------|
E:---------------------------------------------------------------|

Riff 2

e:---------------------------------------------------------------|
B:---------------------------------------------------------------|
G:-7-555555555555-10-99999999--10-99999999-7-555555555555-4------|
D:-7-555555555555-10-99999999--10-99999999-7-555555555555-4--5--7|
A:-5-333333333333-8--77777777--8--77777777-5-333333333333-2--5--7|
E:-----------------------------------------------------------3--5|

Riff 3

e:---------------------------------------------------------------|
B:---------------------------------------------------------------|
G:-99999999999-10-999999999-10-9999999999-10-9999999999-7--------|
D:-99999999999-10-999999999-10-9999999999-10-9999999999-7--------|
A:-77777777777-8--777777777-8--7777777777--8-7777777777-5--------|
E:---------------------------------------------------------------|

Riff 4

e:---------------------------------------------------------------|
B:---------------6--------6--------6--------6--------------------|
G:-9-------9-9---5--9-9---5--9-9---5--9-9---5--------------------|
D:-9-Hold--9-9---3--9-9---3--9-9---3--9-9---3--------------------|
A:-7-------7-7------7-7------7-7------7-7------------------------|
E:---------------------------------------------------------------|

Riff 5 then song fades out.

e:---------------------------------------------------------------|
B:---------------------------------------------------------------|
G:-9999999999-10-9999999999-10-99999999999-10-9999999999-10------|
D:-9999999999-10-9999999999-10-99999999999-10-9999999999-10------|
A:-7777777777-8--7777777777-8--77777777777--8-7777777777-8-------|
E:---------------------------------------------------------------|

Song structure goes like this;

Riff 1 x 3

Riff 2 x 1

Riff 3 x 2

Riff 2 x 1

Riff 4 x 1

Riff 3 x 2

Riff 2 x 1

Riff 5 until fade out.

The End.
Добавлено: 06.07.2012
Другие материалы по этой песне:

Страница создана 30.03.2012
http://primanota.ru/bathory/armageddon-chords.htm
Привет, Гость.
Предлагаем пройти революционный курс по гитаре.
Подарок от PrimaNota.Ru, забирай!