PrimaNota.ru - самый крупный в мире бесплатный архив песенных текстов, аккордов, табулатур и нот


Bathiya And Santhush - Ra Pura Payana Tharuka - таба, видео

Регистрация Запомнить меня
Войти через:  Facebook Google Twitter Vk Yandex Mail.ru

Bathiya And Santhush - Ra Pura Payana Tharuka - таба, видео

Печатать
Просмотров: 50
                                RA PURA PAYANA THARUKA- BATHIYA AND SANTHUSH
                                        TAB BY VISHWA GOPALLAWA
CHORD-Am

[chorus]


E|--------------------------------------------------------------------------------------|
B|--0-------------0----------------------------0-------------0--------------------------|
G|-----2--0--2-------2--0--2----0h2----0--0-------2--0--2-------2--0--2----0h2----0--0--|
D|--------------------------------------------------------------------------------------|
A|--------------------------------------------------------------------------------------|
E|--------------------------------------------------------------------------------------|


E|----------------------------------0--0----------------0--1--1--1--0---------------------|
B|--0--1--3--3--3--1--0--0----1--3--------3--1--1----3-----------------3--1----1--1--1/4--|
G|----------------------------------------------------------------------------------------|
D|----------------------------------------------------------------------------------------|
A|----------------------------------------------------------------------------------------|
E|----------------------------------------------------------------------------------------|


--------------------------|
6--4--3--3----3--1--0-----|
-----------------------2--|
--------------------------|
--------------------------|
--------------------------|


E|--------------------------------------------------------------------------------------|
B|--0-------------0----------------------------0-------------0--------------------------|
G|-----2--0--2-------2--0--2----0h2----0--0-------2--0--2-------2--0--2----0h2----0--0--|
D|--------------------------------------------------------------------------------------|
A|--------------------------------------------------------------------------------------|
E|--------------------------------------------------------------------------------------|

[voice bit]
E|------------------------------------|
B|--0----0--1--3----1--0--------0-----|
G|------------------------2--0-----2--|
D|------------------------------------|
A|------------------------------------|
E|------------------------------------|


[verse]


E|--------0--0--0----------------------------------------------0--0--------2--2--0---------------0------------|
B|--0--1-----------3--3--3------1--0----------3--3--3----0--1--------3--3---------------3--3--3-----3---3--3--|
G|------------------------------------2----2------------------------------------------------------------------|
D|------------------------------------------------------------------------------------------------------------|
A|------------------------------------------------------------------------------------------------------------|
E|------------------------------------------------------------------------------------------------------------|


E|--2--2--2--2--0--2--3--2--0------------0--0----0--2--3--2--0-----|
B|-----------------------------3--3-----------------------------3--|
G|-----------------------------------------------------------------|
D|-----------------------------------------------------------------|
A|-----------------------------------------------------------------|
E|-----------------------------------------------------------------|

[hindi part]
E|--7--5--3--5------7--5--3--5----5--3--3------7--8--10--10--8--7--7------8--10--12--12--10--8--8--|
B|-------------------------------------------------------------------------------------------------|
G|-------------------------------------------------------------------------------------------------|
D|-------------------------------------------------------------------------------------------------|
A|-------------------------------------------------------------------------------------------------|
E|-------------------------------------------------------------------------------------------------|

E|--10--12--13--13--15--13--12--10----8--10--11--13--11--10----10--8--7--5--|
B|--------------------------------------------------------------------------|
G|--------------------------------------------------------------------------|
D|--------------------------------------------------------------------------|
A|--------------------------------------------------------------------------|
E|--------------------------------------------------------------------------|

E|--7--5--3--5------7--5--3--5----5--3--3----|
B|-------------------------------------------|
G|-------------------------------------------|
D|-------------------------------------------|
A|-------------------------------------------|
E|-------------------------------------------|
Добавлено: 22.05.2016
Другие материалы по этой песне:
  • Аккорды и текст

Страница создана 22.05.2016
http://primanota.ru/bathiya-and-santhush/ra-pura-payana-tharuka-chords.htm
Привет, Гость.
Предлагаем пройти революционный курс по гитаре.
Подарок от PrimaNota.Ru, забирай!