PrimaNota.ru - самый крупный в мире бесплатный архив песенных текстов, аккордов, табулатур и нот


Bates - Fck On The Edge Of The World - таба, видео

Регистрация Запомнить меня
Войти через:  Facebook Google Twitter Vk Yandex Mail.ru

Bates - Fck On The Edge Of The World - таба, видео

Печатать
Просмотров: 144
Уроки эстрадного вокала в Санкт-Петербурге
If you want the song to match the original, then
you should play it in normal tuning in a fucking
fast tempo. Let's see the chords:

VERSE:
(simple, but listen to the cd to get the timing)
[F5 - D5]
[A5 - B5]

CHORUS:
(an original punk 4chords chorus! yeah!)
[D5 - A5]
[H5 - G5]
    [F5 - A5]   // bridge (only 4th)


SOLO:
( A real punk solo - it focuses on melodies )
( instead of techniques, of course.         )
( It is only 90% correct but don't be       )
( afraid, it absolutley fits the song.      )
( This solo is great for players who like   )
( improvising a bit - or a lot. :)          )
( If you play it with 2 guitars, the rythm  )
( guitar should play the verse part.        )

||--------------------------|--------------------------|
||--------------------------|--------------------------|
||--------------------------|--------------------------|
||---------------------7----|--7----5--7--8--8--7------|
||------5----7----9---------|----------------------10--|
||--------------------------|--------------------------|

|--------------------------------|------------------------|
|--10----10-11---11-13---13--13--|------------------------|
|--x-----x--x----x--x----x---x---|------------------------|
|--7-----7/-8----8/-10---10--10--|--10----8--7------------|
|--------------------------------|--------------8~---8~---|
|--------------------------------|------------------------|

|--------------------------|---------------------------|
|--------------------------|---------------------------|
|--------------------------|---------------------------|
|---------------------7----|--7----5--7--7--8--10--12--|
|------5----7----9---------|---------------------------|
|--------------------------|---------------------------|

|------------------------|----------------------------||
|------------------------|----------------------------||
|------------------------|----------------------------||
|--12/---7----10/---5----|--5----7----8---------------||
|------------------------|-----------------10----9~---||
|------------------------|----------------------------||


BRIDGE/OUTRO:
("just kill your guitar..")
[F5 - A5] or [F - A] as you wish..

The song ends on D5

     
Добавлено: 09.10.2013
Другие материалы по этой песне:
  • Аккорды и текст

Страница создана 09.10.2013
http://primanota.ru/bates/fck-on-the-edge-of-the-world-chords.htm
Привет, Гость.
Предлагаем пройти революционный курс по гитаре.
Подарок от PrimaNota.Ru, забирай!