PrimaNota.ru - самый крупный в мире бесплатный архив песенных текстов, аккордов, табулатур и нот


Bates Joel - Truth - таба, видео

Регистрация Запомнить меня
Войти через:  Facebook Google Twitter Vk Yandex Mail.ru

Bates Joel - Truth - таба, видео

Печатать
Просмотров: 84
Song title: Truth
Artist: Joel Bates
Originally Tabbed by: Joel Bates (joelbatesis@hotmail.com)
unreleased album: alone

Intro(x2)
acoustic
         D
e:---------------------------------------------|
B:-----3------3-------3--------3------3------3-|
G:-------2------2-----------0----0------0------|
D:---0-----0------0---------0------0------0----|
A:---------------------------------------------|
E:---------------------------------------------|

Intro/Verse(x4)
acoustic

     D
e:---------------------------------------------|
B:-----3------3-------3--------3------3------3-|
G:-------2------2-----------0----0------0------|
D:---0-----0------0---------0------0------0----|
A:---------------------------------------------|
E:---------------------------------------------|


pre chorus: x4
       D          G/D         D             D

e:--222-22-2----222--222----222-222-0h2-22-222-|
B:--333-33-2----222--222----333-333-3---33-333-|
G:--222-22-0----000--000----222-222-2---22-222-|
D:--000-00------000--000----000-000-0---00-000-|
A:--------------222--222-----------------------|
E:--------------333--333-----------------------|



Chorus
Am G/D D x4

.-back to Intro/Verse

pre chorus:
chorus: x2


thanks,everything
is played on
an acoustic. I usually finger pick the whole song.
there are lyrics that will be printed with the song soon.


_________________________________________________________________
     
Добавлено: 24.10.2013
Другие материалы по этой песне:
  • Аккорды и текст

Страница создана 25.08.2013
http://primanota.ru/bates-joel/truth-chords.htm
Привет, Гость.
Предлагаем пройти революционный курс по гитаре.
Подарок от PrimaNota.Ru, забирай!