PrimaNota.ru - самый крупный в мире бесплатный архив песенных текстов, аккордов, табулатур и нот


Bat - Bat - таба, видео

Регистрация Запомнить меня
Войти через:  Facebook Google Twitter Vk Yandex Mail.ru

Bat - Bat - таба, видео

Печатать
Просмотров: 144
-------------------------------------------------------------------------------
                                  BAT - Bat
-------------------------------------------------------------------------------
Tabbed by:witching speärbreaker
E-mail:blome.cevin@live.de
Link: https://www.youtube.com/watch?v=N4P644hqswQ


Hi, I made this tab for my own Band, we are going to cover dat piece and 
in addition, I thought about uploading it here, sharing it with all of you maniacs out there!
Hailz and Greetings from Germany!

PS: I didn't find out the solo, I didn't even try, 
because our guitarist will add his own in our cover :D


Tuning:E-Standard

INTRO:Dis-Powerchord

|Strophe1/2|
e|--------------------------------------------------------------------------------|
B|--------------------------------------------------------------------------------|
G|--------------------------------------------------------------------8886643(1x)-|   
D|-8~888888----------(3x)--8~888888-23468(1x)--8~888888----------(3x)-8886643-----|   2x
A|-6~666666-9p6\4h6p4------6~666666-01246------6~666666-9p6\4h6p4-----------------|
E|--------------------------------------------------------------------------------|

|Prechorus|
e|-----------------------------------------------------------------------------|
B|-----------------------------------------------------------------------------|
G|-----------------------------------------------------------------------------|
D|-888888888888-11-11-888888888888-13-11 888888888888-11-11-888888888888-23468-|   3x
A|-666666666666-9--9--666666666666-11-9--666666666666-9--9--666666666666-01246-|
E|-----------------------------------------------------------------------------|
   
e|----------------------------------------------------------------------------|
B|----------------------------------------------------------------------------|
G|----------------------------------------------------------------------------|
D|-888888888888-11-11-888888888888-13-11 888888888888-11-11-888888888888-2346-|   1x
A|-666666666666-9--9--666666666666-11-9--666666666666-9--9--666666666666-0124-|
E|----------------------------------------------------------------------------|

|Chorus|
e|-------------------------------------------------------|
B|-------------------------------------------------------|
G|-------------------------------------------------------|
D|-4~~~~~~~~~-3~~~~~~~~~-8~88888-8~88888-8~88888-8~88888-|   3x
A|-2~~~~~~~~~-1~~~~~~~~~-6~66666-6~66666-6~66666-6~66666-|
E|-------------------------------------------------------|

e|-----------------------------------------------|
B|-----------------------------------------------|
G|-----------------------------------------------|
D|-4~~~~~~~~~-3~~~~~~~~~-------9~8~6~8~6~4~6~4~2-|   1x
A|-2~~~~~~~~~-1~~~~~~~~~-6~8~9-------------------|
E|-----------------------------------------------|

|Strophe1/2|
e|-------------------------------------------------------------------------------|
B|-------------------------------------------------------------------------------|
G|--------------------------------------------------------------------8886643(1x)|   
D|-8~888888----------(3x)--8~888888-23468(1x)--8~888888----------(3x)-8886643----|   2x
A|-6~666666-9p6\4h6p4------6~666666-01246------6~666666-9p6\4h6p4----------------|
E|-------------------------------------------------------------------------------|

|Bridge|
e|------------------------------------------|
B|------------------------------------------|
G|------------------------------------------|
D|-8(7x)-11-8(5x)-986864-8(7x)-11-8(5x)-4-6-|   3x
A|-6-----9--6------------6-----9--6-----2-4-|
E|------------------------------------------|

|Solo|
e|-------------------------------------|
B|-------------------------------------|
G|-------------------------------------|
D|-8(7x)-11-8(7x)-6-8(7x)-11-8(5x)-4-6-|   4x
A|-6-----9--6-----4-6-----9--6-----2-4-|
E|-------------------------------------|

|Bridge| 
e|------------------------------------------|
B|------------------------------------------|
G|------------------------------------------|
D|-8(7x)-11-8(5x)-986864-8(7x)-11-8(5x)-4-6-|   2x
A|-6-----9--6------------6-----9--6-----2-4-|
E|------------------------------------------|

|Chorus|
e|-------------------------------------------------------|
B|-------------------------------------------------------|
G|-------------------------------------------------------|
D|-4~~~~~~~~~-3~~~~~~~~~-8~88888-8~88888-8~88888-8~88888-|   3x
A|-2~~~~~~~~~-1~~~~~~~~~-6~66666-6~66666-6~66666-6~66666-|
E|-------------------------------------------------------|

e|-----------------------------------------------|
B|-----------------------------------------------|
G|-----------------------------------------------|
D|-4~~~~~~~~~-3~~~~~~~~~-------9~8~6~8~6~4~6~4~2-|   1x
A|-2~~~~~~~~~-1~~~~~~~~~-6~8~9-------------------|
E|-----------------------------------------------|

Outro:Dis-Powerchord and solo note variations!

Hope you all are now pleased by the Bat !


************************************

| \   slide down
| h   hammer-on
| p   pull-off
| ~   sustain=sexy

************************************
Добавлено: 12.08.2015
Другие материалы по этой песне:
  • Аккорды и текст

Страница создана 12.08.2015
http://primanota.ru/bat/bat-chords.htm
Привет, Гость.
Предлагаем пройти революционный курс по гитаре.
Подарок от PrimaNota.Ru, забирай!