PrimaNota.ru - самый крупный в мире бесплатный архив песенных текстов, аккордов, табулатур и нот


Bastro - Nothing Special - таба, видео

Регистрация Запомнить меня
Войти через:  Facebook Google Twitter Vk Yandex Mail.ru

Bastro - Nothing Special - таба, видео

Печатать
Просмотров: 71
BASTRO - NOTHING SPECIAL

http://www.myspace.com/bastro

e|---------------1--1------1-3--3----3--1--1--1-1-|
b|-1--1----1-----1--1------1-3--3----3--1--1--1-1-|
G|-2--2----2-----2--2------2-0--0----0--2--2--2-2-|
D|-2--2----2-----3--3------3-0--0----0--3--3--3-3-| x6
A|-0--0----0--3--------3-3--------------3--3--3-3-|
E|------------1--------1-1---3--3----3--1--1--1-1-|

e|---------------------3-3-3-3-3-3-3---------------------0-----0------|
b|---------------------3-3-3-3-3-3-3---------------------1-----1------|
G|---------------------0-0-0-0-0-0-0---------------------0-----0------|
D|-2--2-2-2-2-2-2-2-5--0-0-0-0-0-0-0-2--2-2-2-2-2-2-2-----------------| x2
A|-2--2-2-2-2-2-2-2-5----------------2--2-2-2-2-2-2-2-3--3--3--3--3-3-|
E|-0--0-0-0-0-0-0-0-3--3-3-3-3-3-3-3-0--0-0-0-0-0-0-0-1--1--1--1--1-1-|

e|---------------1--1------1-3--3----3--1--1--1-1-|
b|-1--1----1-----1--1------1-3--3----3--1--1--1-1-|
G|-2--2----2-----2--2------2-0--0----0--2--2--2-2-|
D|-2--2----2-----3--3------3-0--0----0--3--3--3-3-| x4
A|-0--0----0--3--------3-3--------------3--3--3-3-|
E|------------1--------1-1---3--3----3--1--1--1-1-|

e|---------------------3-3-3-3-3-3-3---------------------0-----0------|
b|---------------------3-3-3-3-3-3-3---------------------1-----1------|
G|---------------------0-0-0-0-0-0-0---------------------0-----0------|
D|-2--2-2-2-2-2-2-2-5--0-0-0-0-0-0-0-2--2-2-2-2-2-2-2-----------------| x2
A|-2--2-2-2-2-2-2-2-5----------------2--2-2-2-2-2-2-2-3--3--3--3--3-3-|
E|-0--0-0-0-0-0-0-0-3--3-3-3-3-3-3-3-0--0-0-0-0-0-0-0-1--1--1--1--1-1-|

e|---------------------------------------------|
b|---------------------------------------------|
G|---------------------------------------------|
D|---------------------------------------------| x3
A|-1----1-1/3-1--------2-----------------------|
E|--------------4--1-4---4----2--2--2-/-4--2-1-|

e|---------------------------------------------|
b|---------------------------------------------|
G|---------------------------------------------|
D|---------------------------------------------| x1
A|-1----1-1/3-1--------1-----------------------|
E|--------------4--1-4---4----2-------2h4--2-1-|
e|---------------------------------------------|

e|---------------------3-3-3-3-3-3-3---------------------0-----0------|
b|---------------------3-3-3-3-3-3-3---------------------1-----1------|
G|---------------------0-0-0-0-0-0-0---------------------0-----0------|
D|-2--2-2-2-2-2-2-2-5--0-0-0-0-0-0-0-2--2-2-2-2-2-2-2-----------------| x2
A|-2--2-2-2-2-2-2-2-5----------------2--2-2-2-2-2-2-2-3--3--3--3--3-3-|
E|-0--0-0-0-0-0-0-0-3--3-3-3-3-3-3-3-0--0-0-0-0-0-0-0-1--1--1--1--1-1-|

e|---------------1--1------1-3--3----3--1--1--1-1-|
b|-1--1----1-----1--1------1-3--3----3--1--1--1-1-|
G|-2--2----2-----2--2------2-0--0----0--2--2--2-2-|
D|-2--2----2-----3--3------3-0--0----0--3--3--3-3-| x4
A|-0--0----0--3--------3-3--------------3--3--3-3-|
E|------------1--------1-1---3--3----3--1--1--1-1-|

e|---------------------3-3-3-3-3-3-3---------------------0-----0------|
b|---------------------3-3-3-3-3-3-3---------------------1-----1------|
G|---------------------0-0-0-0-0-0-0---------------------0-----0------|
D|-2--2-2-2-2-2-2-2-5--0-0-0-0-0-0-0-2--2-2-2-2-2-2-2-----------------| x2
A|-2--2-2-2-2-2-2-2-5----------------2--2-2-2-2-2-2-2-3--3--3--3--3-3-|
E|-0--0-0-0-0-0-0-0-3--3-3-3-3-3-3-3-0--0-0-0-0-0-0-0-1--1--1--1--1-1-|
e|---------------------------------------------|
b|---------------------------------------------|
G|---------------------------------------------|
D|---------------------------------------------| x4
A|-1----1-1/3-1--------2-----------------------|
E|--------------4--1-4---4----2--2--2-/-4--2-1-|

e|------------------------------------------|
b|-1----------------------------------------|
G|-2----------------------------------------|
D|-2----------------------------------------|
A|-0----------------------------------------|
E|------------------------------------------|
Добавлено: 23.11.2013
Другие материалы по этой песне:
  • Аккорды и текст

Страница создана 23.11.2013
http://primanota.ru/bastro/nothing-special-chords.htm
Привет, Гость.
Предлагаем пройти революционный курс по гитаре.
Подарок от PrimaNota.Ru, забирай!