PrimaNota.ru - самый крупный в мире бесплатный архив песенных текстов, аккордов, табулатур и нот


Bastille - Remains - таба, видео

Регистрация Запомнить меня
Войти через:  Facebook Google Twitter Vk Yandex Mail.ru

Bastille - Remains - таба, видео

Печатать
Просмотров: 101
-------------------------------------------------------------------------------
          Remains - Batille Vs. Rag'n'bone Man Vs. Skunk Anansie
-------------------------------------------------------------------------------

This is my first Tab, hope it's okay :) 
It's basically just the fingerpicking though
 

Intro:
     F            Am           G            F
e|------------------------------------------------------------------------------|
B|--------1-----------1------------0--------------1-----------------------------|
G|--------2-----------2------------0------------2-2-----------------------------|
D|-----3------------2------------0------------3---------------------------------|
A|-----------------0------------------------------------------------------------|
E|---1-------------------------3------------1-----------------------------------|


Verse:
   F            Am           G            F
e|------------------------------------------------------------------------------|
B|----------1------------1-----------0------------1-----------------------------|
G|-------2--2----------2-2--------0--0---------2--2-----------------------------|
D|----3--------------2----------0-----------3-----------------------------------|
A|-----------------0------------------------------------------------------------|
E|--1-------------------------3-----------1-------------------------------------|
                                                   x2
    F                 Am                    G                 F
e|------------------------------------------------------------------------------|
B|----------1-------------------1-------------------0------------------1--------|
G|-------2--2----------------2--2----------------0--0---------------2--2--------|
D|----3--------3----------2--------2----------0--------0---------3--------3-----|
A|-----------------------0-----------0------------------------------------------|
E|--1------------1--------------------------3-----------3------1------------1---|
                                                                         x2                 


Pre-chorus:
     F               G                Am               Cm
e|------------------------------------------------------------------------------|
B|------------------------------------------------------------------------------|
G|-------2----------------0-----------------2------------------5----------------|
D|----3------3---------0------0----------2------2-----------5-----5-------------|
A|--------------------------------------0-----------------3---------------------|
E|--1----------------3----------------------------------------------------------|
                                                                       x2
     F          G           Am 
e|------------------------------------------------------------------------------|
B|------------------------------------------------------------------------------|
G|--------2-----------0------------2--------------------------------------------|
D|------3-----------0------------2----------------------------------------------|
A|----3-----------0------------0------------------------------------------------|
E|--1-----------3---------------------------------------------------------------|   
 
                               
Chorus:

F      Am      G        F     x4


Verse 2:

         F                 Am                G                F
e|------------------------------------------------------------------------------|
B|--------1------------------1------------------0------------------1------------|
G|--------2------------------2------------------0------------------2------------|
D|-----3----3---3---------2----2---2---------0----0---0--------3------3---3-----|
A|----------------------0--------0----------------------------------------------|
E|---1--------1----------------------------3--------3---------1---------1-------|
                                                                             x2
         F                 Am                G                F
e|------------------------------------------------------------------------------|
B|---------1------------------1------------------0------------------1-----------|
G|-------2-2----------------2-2----------------0-0----------------2-2-----------|
D|-----3-----3---3--------2-----2---2--------0-----0---0--------3------3---3----|
A|----------------------0---------0---------------------------------------------|
E|---1---------1----------------------------3--------3--------1----------1------|

                                                                             x2
Pre-chorus:
     F               G                Am               Cm
e|------------------------------------------------------------------------------|
B|------------------------------------------------------------------------------|
G|-------2----------------0-----------------2------------------5----------------|
D|----3------3---------0------0----------2------2-----------5-----5-------------|
A|--------------------------------------0-----------------3---------------------|
E|--1----------------3----------------------------------------------------------|
                                                                       x2
     F          G           Am 
e|------------------------------------------------------------------------------|
B|------------------------------------------------------------------------------|
G|--------2-----------0------------2--------------------------------------------|
D|------3-----------0------------2----------------------------------------------|
A|----3-----------0------------0------------------------------------------------|
E|--1-----------3---------------------------------------------------------------|   


Chorus:

F      Am      G        F     x4


Bridge:
        F         C    G  x2   
                               F      Am     G     E7


Pre-chorus:
     F               G                Am               Cm
e|------------------------------------------------------------------------------|
B|------------------------------------------------------------------------------|
G|-------2----------------0-----------------2------------------5----------------|
D|----3------3---------0------0----------2------2-----------5-----5-------------|
A|--------------------------------------0-----------------3---------------------|
E|--1----------------3----------------------------------------------------------|
                                                                       x2
     F          G           Am 
e|------------------------------------------------------------------------------|
B|------------------------------------------------------------------------------|
G|--------2-----------0------------2--------------------------------------------|
D|------3-----------0------------2----------------------------------------------|
A|----3-----------0------------0------------------------------------------------|
E|--1-----------3---------------------------------------------------------------|   


Chorus:

F      Am      G      F     x4


Outro (sort of):

e|---------------------------------------------------------------------------|
B|---------------------------------------------------------------------------|
G|---------------------------------------------------------------------------|
D|---------------------------------------------------------------------------|
A|---------------------------------------------------------------------------|
E|----13----13----13-----13--Slide down--------------------------------------|
Добавлено: 21.10.2015
Другие материалы по этой песне:
  • Аккорды и текст

Страница создана 21.10.2015
http://primanota.ru/bastille/remains-chords.htm
Привет, Гость.
Предлагаем пройти революционный курс по гитаре.
Подарок от PrimaNota.Ru, забирай!