PrimaNota.ru - самый крупный в мире бесплатный архив песенных текстов, аккордов, табулатур и нот


Basshunter - I Can Walk On Water - текст песни, бас-таба, видео

Регистрация Запомнить меня
Войти через:  Facebook Google Twitter Vk Yandex Mail.ru

Basshunter - I Can Walk On Water - текст песни, бас-таба, видео

Печатать
Просмотров: 287
Уроки эстрадного вокала в Санкт-Петербурге
I CAN WALK ON WATER - BASSHUNTER

Tabbed by Gigaham

Technically this is the whole song,
 but every once in a while,
at the end of each tiny riff there is an extra note or two.

It would definently help to hear the song a few times as well.

G|-----------------------6-2-6-6-4----------4-4----------|
D|-4--7-7-6-4-6-------------------7-6-6-7------7-6-------|
A|---4-------------7-4-----------------------------------|
E|-------------------------------------------------------|

G|---------------------9-5-9-9-7------------5-5----------|
D|-7-10-10-9-7-9-----------------10-9-9-10-----10-9------|
A|--7------------10-7------------------------------------|
E|-------------------------------------------------------|

This is my very first tab. Enjoy.
Добавлено: 21.07.2012
Другие материалы по этой песне:
  • Аккорды и текст

Страница создана 21.07.2012
http://primanota.ru/basshunter/i-can-walk-on-water-chords.htm
Привет, Гость.
Предлагаем пройти революционный курс по гитаре.
Подарок от PrimaNota.Ru, забирай!