PrimaNota.ru - самый крупный в мире бесплатный архив песенных текстов, аккордов, табулатур и нот


Basia Bulat - The Shore - аккорды и текст, видео

Регистрация Запомнить меня
Войти через:  Facebook Google Twitter Vk Yandex Mail.ru

Basia Bulat - The Shore - аккорды и текст, видео

Печатать
Просмотров: 184
Уроки эстрадного вокала в Санкт-Петербурге
The Shore
Basia Bulat
From the album "Heart of My Own"



Chords used:
    
    C      G      F
e|--0--||--3--||--1--|
B|--1--||--0--||--1--|
G|--0--||--0--||--2--|
D|--2--||--0--||--3--|
A|--3--||--2--||--3--|
E|--0--||--3--||--x--|



   C                 
e|----0----0----0----0----0----3----5----8----8----8-----10----12----|
B|-------------------------------------------------------------------|
G|-------------------------------------------------------------------|
D|-------------------------------------------------------------------|
A|-------------------------------------------------------------------|
E|-------------------------------------------------------------------|

   G                      F                
e|----7----8----10----12----5----8----10----12----|
B|------------------------------------------------|
G|------------------------------------------------|
D|------------------------------------------------|
A|------------------------------------------------|
E|------------------------------------------------|

   C          F           C
e|----8----8----10----12----8----8----10----12----|
B|------------------------------------------------|
G|------------------------------------------------|
D|------------------------------------------------|
A|------------------------------------------------|
E|------------------------------------------------|

   G                      F
e|----7----8----10----12----5----8----10----12----|
B|------------------------------------------------|
G|------------------------------------------------|
D|------------------------------------------------|
A|------------------------------------------------|
E|------------------------------------------------|

    C              F               
e|----8----8----8----12----10----|
B|-------------------------------|
G|-------------------------------|
D|-------------------------------| 
A|-------------------------------|
E|-------------------------------|



C                                        F
There is no one who will take me by that shore

G                                              F
Close to the smoke, far from the fire of your harbour.

C                                F
But if I am awake this time I'll know

G                                      C     F                    C      
All over your eyes, a storm is rolling over, rolling over, rolling over


C G F C


  G
Oh you can take away the divine my dear

  F
And comb your hair

                   C   G
And I won't mind at all.

  G
Even when the thought's behind

  F
I came just to remind you

  C       F   G
I love you so.

There is no one who will take me by that shore
But the waves rushing down
The waves rushing down on your shoulders.
And if I am awake this time I'll know
All over your eyes, a storm is nearly over
Nearly over

And you can take away the divine my dear
And comb your hair
And I won't mind at all.
Even when the thought's behind
I came just to remind you
I love you so
I love you so
I love you so.
Добавлено: 14.03.2012
Другие материалы по этой песне:
  • Аккорды и текст

Страница создана 14.03.2012
http://primanota.ru/basia-bulat/the-shore-chords.htm
Привет, Гость.
Предлагаем пройти революционный курс по гитаре.
Подарок от PrimaNota.Ru, забирай!